Song name
# A B C D E F G H I J K L M N O P Q R S T U V W X Y Z

David Crowder Band - How He Loves tab

How He Loves - Lead Guitar Tab

Ebow Part
e|---------------|
B|--13-12-5--8---|
G|---------------|
D|---------------|
A|---------------|
E|---------------|

Quiet Finger Picking & Louder Cross Picking
e|---------------------------------|
B|--13---13-12---12-13--13-15---15-|
G|----12------12------12-----12----|
D|---------------------------------|
A|---------------------------------|
E|---------------------------------|

Strum Part
e|--15---15--15--15----------------|
B|--13---12--13--15----------------|
G|--12---12--12--12----------------|
D|---------------------------------|
A|---------------------------------|
E|---------------------------------|

Loud Cross Picking Part
e|--13--13--13--12--12--12--10--10--10--12--12--12-----|
B|----13--13--13--13--13--13--13--13--13--13--13--13---|
G|-----------------------------------------------------|   (3x)
D|-----------------------------------------------------|
A|-----------------------------------------------------|
E|-----------------------------------------------------|

e|--15----------15----------15----------15-------------|
B|------13--13------13--13------13--13------13--13-----|
G|----12--12--12--12--12--12--12--12--12--12--12--12---|
D|-----------------------------------------------------|
A|-----------------------------------------------------|
E|-----------------------------------------------------|
Tap to rate this tab
 
# A B C D E F G H I J K L M N O P Q R S T U V W X Y Z