Song name
# A B C D E F G H I J K L M N O P Q R S T U V W X Y Z

David Crowder Band - Like A Lion tab

Like A Lion by David Crowder Band
Intro: G#m,F#m,B
e----------------------------------------------------------|
B----------------------------------------------------------|
G-11-11-11-8-8-8-8-8-11-11-11------------------------------|
D-----------------------------8-8-8-8-8-8/9-9-9-9-9-9-9-9-9|
A----------------------------------------------------------| (x6)
E----------------------------------------------------------|

Verse:
G#m         F#m                    B
Let love explode and bring the dead to life
C#m         B
A love so bold
            E
To see a revolution somehow.
G#m         F#m                    B
Let love explode and bring the dead to life
C#m         B
A love so bold
              E
To bring a revolution somehow

Pre- chorus
F#m                     G#m
Now I'm lost in your freedom
F#m                  E
This world I'll overcome.

Chorus:         (x2)
   F#m
My God is not dead
He's surely alive
    G#m
He's living on the inside
Roaring like a lion

BRIDGE B,F#m,G#m,E

e----------------------------------------------------------|
B----------------------------------------------------------|
G-11-11-11-8-8-8-8-8-11-11-11------------------------------|
D-----------------------------8-8-8-8-8-8/9-9-9-9-9-9-9-9-9| 
A----------------------------------------------------------| (x2)
E----------------------------------------------------------|

Verse 2:
G#m         F#m                   B   
Let hope arise and make the darkness hide
C#m           B
My faith is dead
          E
I need a resurrection somehow (x2)

Pre- chorus
F#m                     G#m
Now I'm lost in your freedom
F#m                  E
This world I'll overcome.

Chorus: (x4)
   F#m
My God is not dead
He's surely alive
    G#m
He's living on the inside
Roaring like a lion


Bridge:   
            B             F#m
Let Heaven roar and fire fall
                G#m
come shake the ground
                  C#m
with the sound of revival (x5)

 
Chorus:            (x2)
  F#m
My God is not dead
He's surely alive
    G#m
He's living on the inside
Roaring like a lion   

He's surely a-li-hi-ve!
e----------------------------------------------------------|
B----------------------------------------------------------|
G-11-11-11-8-8-8-8-8-11-11-11------------------------------|
D-----------------------------8-8-8-8-8-8/9-9-9-9-9-9-9-9-9|
A----------------------------------------------------------|
E----------------------------------------------------------|


Tap to rate this tab
# A B C D E F G H I J K L M N O P Q R S T U V W X Y Z