Song name
# A B C D E F G H I J K L M N O P Q R S T U V W X Y Z

David Crowder Band - Church Music - Dance tab

Church Music - Dance (!)
David Crowder*Band

CAPO 1
All tab is relative to capo.

Solo starts at 1:19
e|-----------5--------------------------------------|
B|-------------5-8---5-5----------------------------|
G|--7^---7~--------7-----8p7p5-7-5---5--------------|
D|---------------------------------7---7p5---5------|
A|-----------------------------------------7--------|
E|--------------------------------------------------|

e|------------------------------------------------------------------------|
B|------------------------------------------------------------8---10~-----|
G|--------------------------------------5-7---5-7p5---5-7h8h9---9---------|
D|--------------3-----------5-7---5-6-7-----7-------7---------------------|
A|--7p6-5\3---3---0-3/5-6-7-----7-----------------------------------------|
E|----------5-------------------------------------------------------------|

Solo ends at 1:30
Tap to rate this tab
 
# A B C D E F G H I J K L M N O P Q R S T U V W X Y Z