Song name
# A B C D E F G H I J K L M N O P Q R S T U V W X Y Z

David Crowder Band - No One Like You tab

I know for a fact these are correct, have fun with 'em, check out chords for the 
song and add the intro with it :D
Capo on 3rd fret

e]---------------------------------------------------|
b]--3-3-3-0-0-0-3-3-3--------------3-3-3-0-0-0-3-3-3-|
g]--------------------4-4-4-5-5-5--------------------|
d]---------------------------------------------------|
a]---------------------------------------------------|
E]---------------------------------------------------|



e]---------------------------------------------------|
b]----------------3-3-3-0-0-0-3-3-3------------------|
g]-4-4-4-5-5-5----------------------4-4-4-5-5-5------|
d]---------------------------------------------------|
a]---------------------------------------------------|
E]---------------------------------------------------|
Tap to rate this tab
# A B C D E F G H I J K L M N O P Q R S T U V W X Y Z