Song name
# A B C D E F G H I J K L M N O P Q R S T U V W X Y Z

David Crowder Band - Let Me Feel You Shine tab

These are the Lead parts to Let Me Feel You Shine by David Crowder Band.
This is my first tab, so I hope that it all works.

VERSE

e|--14---14---9--11---9--11---11---9--|
B|--12---12---12-12---12-12---12---12-|
G|--11---11---11-11---11-11---11---11-|
D|------------------------------------|
A|------------------------------------|
E|------------------------------------|


CHORUS

e|------7-------9--------12------11---|
B|----0---0---0---0----0----0----0----|
G|--8-------9-------11--------11-11---|
D|------------------------------------|
A|------------------------------------|
E|------------------------------------|

e|------7-------9---7-----------------|
B|----0---0---0---0-7-----------------|
G|--8-------9-------9-----------------|
D|------------------------------------|
A|------------------------------------|
E|------------------------------------|


BRIDGE

e|-----------12-------------|--------------------------|
B|-----14---------14----14--|-----------12-------------|
G|--13----13---------13-----|-----11---------11----11--|
D|--------------------------|--14----14---------14-----|
E|--------------------------|--------------------------|
E|--------------------------|--------------------------|

e|--------------------------|--------------------------|
B|-----------12-------------|--11----------------------|
G|-----11---------11----11--|--11----------------------|
D|--13----13---------13-----|--11----------------------|
E|--------------------------|--------------------------|
E|--------------------------|--------------------------|
Tap to rate this tab
# A B C D E F G H I J K L M N O P Q R S T U V W X Y Z