Song name
# A B C D E F G H I J K L M N O P Q R S T U V W X Y Z

David Crowder Band - Let Me Feel You Shine tab

Tabbed By: Tyler Stafford
Email: doc1119@comcast.net
Tuning: Eb

e|-----------------------0--------------------------------------------------|
B|-----------------------0--------------------------------------------------|
G|---8--------8----------8--------------------------------------------------|
D|---9--------9----------9--------------------------------------------------|
A|---x--x8----x--x8------7----x16-------------------------------------------|
E|---7--------9----------0--------------------------------------------------|
 Play that the whole song

Bridge: "Oh God, I need a savior..."
e|------------0----------------------0--------------------------------------|
B|------------0----------------------0--------------------------------------|
G|--8---------8-----------8----------3--------------------------------------|
D|--9---------9-----------9----------4--------------------------------------|
A|--x--x16----7----x16----x--x16-----x-x16----------------------------------|
E|--9---------0-----------7----------2--------------------------------------|

The chords are just: B, C#m, E, this is just a more accurate voicing.

Have fun, God Bless
Tap to rate this tab
 
# A B C D E F G H I J K L M N O P Q R S T U V W X Y Z