Song name
# A B C D E F G H I J K L M N O P Q R S T U V W X Y Z

David Crowder Band - A Return tab

Really simple song with such meaning! Uses the same chords as all the other songs 
on the Give Us Rest album (Am, C, F, G). 


Verse:
E|--------------------------------------------------------------------------------------|
B|----------1-------1-------------1--------1------------1--------1-----------1-------1--|
G|------0------0------------0--------0------------0--------0-----------0--------0-------|
D|---------2------2------------2--------2------------2--------2-----------2--------2----|
A|----0---------------------------------------------------------------------------------|
E|-----------------------3---------------------1--------------------1-------------------|



Chords used:

      Am       G        F
E|-----0-------3--------0--|
B|-----1-------0--------1--|
G|-----2-------0--------2--|
D|-----2-------0--------3--|
A|-----0-------x--------x--|
E|-----x-------3--------1--|


Chorus:

Am       G            F
    The Son has come home

F
We're rejoicing

Am       G            F
    The Son has come home

F
Rejoice my soul


*********

Have Fun!
Tap to rate this tab
# A B C D E F G H I J K L M N O P Q R S T U V W X Y Z