Song name
# A B C D E F G H I J K L M N O P Q R S T U V W X Y Z

David Crowder Band - Surely We Can Change tab

-----------------------------------------------------------------------------
                     Surely We Can Change - David Crowder Band
-----------------------------------------------------------------------------
Tabbed by:dare_u_2_move


Tuning: Record: EADGBe  Live: EbAbDbGbBbeb      

Intro/Verse:
  "And the problem........."
e|--------------------------------------------------------------------------|
B|--------------------------------------------------------------------------|
G|---------------------0-----------------0--------------4----5---7---(5)----|
D|-----------------2----------------3--------------5------------------------|
A|------------3---------------5---------------7-----------------------------|
E|------------------------------------------------------------------------x4|


   "And i don't know......."
e|--------------------------------------------------------------------------|
B|-----------------1-1-1-1-1-1-----------------|
G|-----------------2-0-0-2-2-0----------------------------------------------|
D|-----------------3-3-3-3-3-3----------------------------------------------|
A|--------------------------------------------------------------------------|
E|------------------------------------------------------------------------x4|

Chorus:
  "Where there is pain......"
e|--------------------------------------------------------------------------|
B|-------------------1-1-1-1-1-1-------1-1-1-1-1-1--------------------------|
G|-------------------2-0-0-2-2-0-------0-0-0-0-0-0--------------------------|
D|-------------------3-3-3-3-3-3-------2-0-0-2-2-0--------------------------|
A|-------------------------------------3-3-3-3-3-3--------------------------|
E|--------------------------------------------------------------------------|
 And thats about it. Listen to the song to get timing and stuff.


| /  slide up
| \  slide down
| h  hammer-on
| p  pull-off
| ~  vibrato
| +  harmonic
| x  Mute note
=============================================================================
Tap to rate this tab
 
# A B C D E F G H I J K L M N O P Q R S T U V W X Y Z