Song name
# A B C D E F G H I J K L M N O P Q R S T U V W X Y Z

David Crowder Band - Like A Lion tab

My first tab :D
Feel free to comment/leave a suggestion/make a correction.
Hope this helps!

Like A Lion
David Crowder Band
Passion: Awakening

Tuning:Standard
Key: B

Intro Chords:
G#m F#m B

Acoustic intro:
e----------------------------------------------------------|
B---7--7-7----7--7-7----7--7-7----7--7-7-------------------|
G--9---------8---------8---------8-------------------------|  X6
D-9---9-----9---9-----9---9-----9---9----------------------|
A----------------------------------------------------------|
E----------------------------------------------------------|

After 2nd time through, electric comes in with...

Electric riff:
e----------------------------------------------------------|
B----------------------------------------------------------|
G-11-11-11-8-8-8-8-8-11-11-11------------------------------|
D-----------------------------8-8-8-8-8-8/9-9-9-9-9-9-9-9-9|  X6
A----------------------------------------------------------|
E----------------------------------------------------------|

VERSE 1:
G#m         F#m                    B
Let love explode and bring the dead to life,
C#m         B
A love so bold
            E
To see a revolution somehow.
G#m         F#m                    B
Let love explode and bring the dead to life,
C#m         B
A love so bold
              E
To bring a revolution somehow.
------------------------------------------------------------
PRE CHORUS:
F#m                     G#m
Now I'm lost in your freedom,
F#m                  E
This world I'll overcome.
------------------------------------------------------------
CHORUS:
   F#m
My God is not dead

He's surely alive
    G#m
He's living on the inside

Roaring like a lion.
------------------------------------------------------------
ELECTRIC RIFF X2
------------------------------------------------------------
VERSE 2:
G#m         F#m                   B
Let hope arise and make the darkness hide,
C#m           B
My faith is dead
          E
I need a resurrection somehow.
G#m         F#m                   B
Let hope arise and make the darkness hide,
C#m           B
My faith is dead
          E
I need a resurrection somehow.
------------------------------------------------------------
CHORUS X2
------------------------------------------------------------
BRIDGE:
            B             F#m
Let Heaven roar and fire fall,
                G#m                     C#m
come shake the ground with the sound of revival.
------------------------------------------------------------
CHORUS X4
------------------------------------------------------------
OUTRO:
G#m F#m B

e----------------------------------------------------------|
B----------------------------------------------------------|
G-11-11-11-8-8-8-8-8-11-11-11------------------------------|
D-----------------------------8-8-8-8-8-8/9-9-9-9-9-9-9-9-9|  X4
A----------------------------------------------------------|
E----------------------------------------------------------|
Tap to rate this tab
# A B C D E F G H I J K L M N O P Q R S T U V W X Y Z