Song name
# A B C D E F G H I J K L M N O P Q R S T U V W X Y Z

David Crowder Band - Heres My Heart tab

Heres My Heart Tabs
David Crowder Version
Tabbed by Emmanuel Tse
Capo 4 (Frets are not relative to Capo)
As Tomlin introduces, there is no verse or chorus, only Section A/B
To get a feel on which beats to emphasize and the rhythm itself
Check out the tutorial/sharing video, where he starts playing at 8:22.

Passion 2013 Order (But definitely feel free to mix and match):
Intro
A1 x2
B1
A1
B1
B2
A1 (octave up, start strumming)
A2 + tag
Instrumental
B1
B2
B3
A1 (whole team really comes in)
A2
End


Intro
Em              C               G
|-----------------------------------------------------------------------|
|0---------0--------1---------------------------------------------------|
|-------0----------------0------0---------0-------------0h2---0------0--|
|----2-----------------------2------------------0-------------------0---|
|2------------------3---------------------------------------------------|
|-------------------------------------------3--------3------------------|

Em              C               G
|-----------------------------------------------------------------------|
|0------3-----------1---------------------------------------------------|
|------------0-----------0------0---------0-------------0h2---0------0--|
|----2-----------------------2------------------0-------------------0---|
|2------------------3---------------------------------------------------|
|-------------------------------------------3--------3------------------|


Section A1 (Just like intro except for the last bit)
Em              C               G
|-----------------------------------------------------------------------|
|0---------0--------1---------------------------------------------------|
|-------0----------------0------0---------0-------------0h2---0------0--|
|----2-----------------------2------------------0-------------------0---|
|2------------------3---------------------------------------------------|
|-------------------------------------------3--------3------------------|
Heres   my       heart               Lord

Em              C               G
|-----------------------------------------------------------------------|
|0------3-----------1---------------------------------------------------|
|------------0-----------0------0---------0-------------0h2---0------0--|
|----2-----------------------2------------------0-------------------0---|
|2------------------3---------------------------------------------------|
|-------------------------------------------3--------3------------------|
Heres   my       heart               Lord

Em              C               G
|-----------------------------------------------------------------------|
|0---------0--------1---------------------------------------------------|
|-------0----------------0------0---------0-------------0h2---0------0--|
|----2-----------------------2------------------0-------------------0---|
|2------------------3---------------------------------------------------|
|-------------------------------------------3--------3------------------|
Heres   my       heart               Lord

Play when going back into A1/A2:
Em              C               G
|-----------------------------------------------------------------------|
|--------------------------------0--------------------------------------|
|----0------0------------0-------------------------0----0h2---0------0--|
|--------2-------------------2------------------0-------------------0---|
|2------------------3---------------------------------------------------|
|-------------------------------------------3---------------------------|
        Speak           what    is true
Play when going from A1/A2 to B:
Em              C               G
|-------------------------------------------------------------------|
|--------------------------------0---------------------0-----0------|
|----0------0------------0-------------------------0------0------0--|
|--------2-------------------2------------------0--------------0----|
|2------------------3-----------------------------------------------|
|-------------------------------------------3-----------------------|
        Speak           what    is true

Section A2 Lyrics: (Same tabbing)
Heres my life Lord
Heres my life Lord
Heres my life Lord
Speak what is true.


Tag/End:
Repeat (Speak what is true)
Em              C               G
|--------------------------------------------------------|
|--------------------------------0-----------------------|
|----0------0------------0-------------------------0--0--|
|--------2-------------------2------------------0--------|
|2------------------3------------------------------------|
|-------------------------------------------3------------|
        Speak           what    is true


Section B1
C2              C2              Em7             Dsus
|-----------------------------------------------------------------------------------|
|----------3-------------------3---------------------3------------------------------|
|-------0-----0---0---------0----0---0----------0----0----0-----0---0h2-2-2-2-2-2---|
|----2-----2---2----------2----2---2---------2----2----2------0-----0----0-0-0-0-0--|
|3----------------------3-------------------2---------------------------------------|
|-----------------------------------------------------------------------------------|
I am found      I am Yours      I am loved      Iím made pure

C2              C2              Em7             Dsus
|-------------------------------------------------------------------------------|
|----------3-------------------3---------------------3--------------------------|
|-------0-----0---0---------0----0---0----------0----0----0-----0---0h2-----2---|
|----2-----2---2----------2----2---2---------2----2----2------0------------0ó0--|
|3----------------------3-------------------2-----------------------------------|
|-------------------------------------------------------------------------------|
I have life     I can breathe   I am healed     I am free

Section B2 Lyrics: (Same tabbing)
You are strong
You are sure
You are life
You endure
You are good
Always true
You are light
Breaking through

Instrumental
C2   Em7   Dsus

Section B3 Lyrics: (Same tabbing)
You are more
Than enough
You are here
You are love
You are hope
You are grace
You're all I have
You're everything


Tag/End:
Repeat (Speak what is true)
Em              C               G
|--------------------------------------------------------|
|--------------------------------0-----------------------|
|----0------0------------0-------------------------0--0--|
|--------2-------------------2------------------0--------|
|2------------------3------------------------------------|
|-------------------------------------------3------------|
        Speak           what    is true
Tap to rate this tab
 
# A B C D E F G H I J K L M N O P Q R S T U V W X Y Z