Song name
# A B C D E F G H I J K L M N O P Q R S T U V W X Y Z

David Crowder Band - How He Loves Acoustic tab

How He Loves - David Crowder Band
Tabbed by sikorad15

This is how David plays it on his acoustic sessions. Sounds 100% right.

Tuning: Standard (or half steo down for summer sessions EP)

Intro

    C                  Am                    G                F
e|-----3---|-----3-------3--3----|-----3------3---|----3-----3-----3------------|
B|-----1---|-----1-------0--0h1--|-----1------0---|----1-----1-----1------------|
G|-----0---|-----0-------0--0----|-----0------0---|----0h2---2-----0------------|
D|-----2---|-----2-------2--2----|-----0------0---|----3-----3-----2------------|
A|-----3---|-----0-------0--0----|-----x------x---|----x-----x-----x------------|
E|---------|---------------------|------3------3--|----1-----1-----1------------|


Rest of song

   C       Am         G          F
e|---3----|---3----|----3----|--3-----3----3------------------|
B|---1----|---1----|----1----|--1-----1----1------------------|
G|---0----|---0----|----0----|--0h2---2----0------------------|
D|---2----|---2----|----0----|--3-----3----3------------------|
A|---3----|---0----|----x----|--x-----x----x------------------|
E|---x----|---x----|----3----|--1-----1----1------------------|
Tap to rate this tab
# A B C D E F G H I J K L M N O P Q R S T U V W X Y Z