Song name
# A B C D E F G H I J K L M N O P Q R S T U V W X Y Z

David Crowder Band - Foreverandever Etc tab

alrighty I think i did pretty good.
this is matt and im a beast lookin for a feast.

okay it's standered tuning, no capo

Intro

+Guitar 1
-Distorted-
(* = palm mute)
    
   *******
e|-------------------------|x2
B|-3-3-3-3-3h4-4-3h4-4-3h4-|
G|-3333333-333-3-333-3-333-|
D|-------------------------|
A|-------------------------|
E|-------------------------|

   ** * * * *    ** * * * 
e|------------------------------|
B|---3-3-4-4-4h6---3-3-4-4------|
G|-33333333333---0000003333-5h3-|
D|------------------------------|
A|------------------------------|
E|------------------------------|

+Guitar 2
Distorted

Comes in after the very first part

e|-----------------(0)-------------------|
B|-----------------(0)-------------------|
G|---------8-8-888-(0)---------8-8-888---|
D|-8-8-888-8-8-888-(0)-5-5-555-8-8-888-8-|
A|-8-8-888-6-6-666-(0)-5-5-555-6-6-666-8-|
E|-6-6-666-6-6-666-(0)-3-3-333-6-6-666-6-|

Verse (Love so..)

The verse uses Dave's key-tar but it
sounds fine on guitar

+Guitar 2 starts 
-distorted-
   * *   * *   * *   * *
e|-------------------------| 
B|-------------------------|
G|-----------------8-----8-|
D|-----8-----8-----8-----8-|
A|-----8-----8-6-6-6-6-6-6-|
E|-6-6-6-6-6-6-------------|x8


+Guitar 1 comes in after 4 measures
with I think wah/delay/ a little bit of a phaser
series of these notes (not exactly in order)

e|----------|        |----|
B|----11----|        |-11-|
G|--10------|        |-10-|
D|-8--------|        |-8--|
A|----------|        |----|
E|----------|end with|----|>x3

Pre Chorus (..I think I'm on the break..)

Both guitars do this with distortion

e|-----------------------------|
B|-----------------------------|
G|----3~----3/5----3~----------|
D|-3~-3~-3~-3/5-3~-3~-5-7-8-10-|
A|-3~-1~-3~-1/3-3~-1~-5-7-8-10-|
E|-1~----1~-----1~----3-5-6-8--|

Chorus

Both Guitars do this distorted
(up and down strum- or if you can do a down
stum super fast with out getting cramps)

e|------------------------------------|
B|------------------------------------|
G|---------88888888----------88888888-|
D|-8888888888888888-55555555-88888888-|
A|-8888888866666666-55555555-66666666-|
E|-6666666666666666-33333333-66666666-|x2

End with
(..I am yours)

e|-----|
B|-----|
G|-2~--|
D|-3~--|
A|-3~--|
E|-1~--|

The post chorus is just the intro

The Bridge/Solo where there is the whistling stuff
there is tremolo with this chord:

e|----|
B|-11-|
G|-10-|
D|-8--|
A|----|
E|----|


Okay the order is:

Intro
Verse
Pre Chorus
Chorus
Intro
Verse
Pre Chorus
Chorus
Bridge
Chorus until the end
Tap to rate this tab
# A B C D E F G H I J K L M N O P Q R S T U V W X Y Z