Song name
# A B C D E F G H I J K L M N O P Q R S T U V W X Y Z

David Crowder Band - Skies Interludeopen Skies tab

Help us improve GuitareTab! Take a short survey!
David Crowder fans, rejoice! I have perfected completely (or close enough)
the Skies Interlude and Open Skies! The whole song is in half-step down 
tuning.

Skies Interlude

eb|---------------------------------------------------------------|
bb|-----------------8--7-7--7-------------------3-3--3-7----------|
gb|-----------------7--7-7--7--------------------------7----------|  [repeat until song ends]
db|----------------------------7p5------------------------7p5-----|   
ab|--0h7-0h7-0h7-7-----5-5--5-----9p7--0h7-0h7--3-3--3-5-----9p7--|
eb|---------------------------------------------------------------|


Open Skies

Intro:
eb|------------------------------------------------------------|
bb|-------8-7-7p5h8p7-------5-3-------8-7------5---------------|
gb|-------7-7---------------5---------7-7------5-----0-2p0-----|
db|-------------------------------------------------------4p0--|
ab|--0h7----5----------0h3----3---0h7---5--0h3---3/5-----------|
eb|------------------------------------------------------------|

Verse

eb|-----------------------|
bb|-------8-7--------5-3--|
gb|-------7-7--------5----|
db|-----------------------|
ab|--0h7----5----0h3---3--|
eb|-----------------------|

Pre-Chorus
[strum once]

G/B         Csus2     G/B             Cmaj7
And it's so wonderful just to be here now...

Chorus
[listen to song for strumming]

G7               D
Praise Him under open skies
Csus2
Everything breathing praising God...

And so on and so forth.
Related for Skies Interludeopen Skies tab