Song name
# A B C D E F G H I J K L M N O P Q R S T U V W X Y Z

David Crowder Band - How Great Remix tab

Artist: The David Crowder Band
Song: How Great
Album: Sunsets and Sushi

All tabs relative to Capo 1

Listen to song for timing

Start at 00:09

e|--------------------------------|
b|--------------------------------|
g|--------------------------------|
d|------5-----5--------2-----2----|
a|--0-3-----3---3----3-----3---3--|
e|--------0--------1-----1--------|

Start at 00:27

e|---------------------------------|
b|----10---13-15----10---13-15-10--|
g|--9----9--------9----9-----------|
d|---------------------------------|
a|---------------------------------|
e|---------------------------------|

Start at 00:36

e|------------------------------------|
b|--12------------12-12---------------|
g|-----12--9-7-9--------12-12--9-7-9--|
d|------------------------------------|
a|------------------------------------|
e|------------------------------------|
Tap to rate this tab
# A B C D E F G H I J K L M N O P Q R S T U V W X Y Z