Song name
# A B C D E F G H I J K L M N O P Q R S T U V W X Y Z

David Crowder Band - I Need Words tab

I Need Words by David Crowder Band
beware: some notes are played VERY softly
u should be able to pick them up
e|----------------|------------0-----|----------------|------------------|
B|------0-------0-|------0-------0---|------0-------0-|------0-----0-----|
G|--2-------4-----|--4/6---4---------|--2-------4-----|--4/6---4---2p1---|
D|----2-------2---|----------2-----2-|----2-------2---|----------2-----2-|
A|4-------6-------|0-----------------|4-------6-------|0-----------------|
E|----------------|------------------|----------------|------------------|

e|----------------|------------0-----|----------------|--------------0---|
B|------0-------0-|------0-------0---|------0-------0-|----------0-----0-|
G|--2-------4-----|--4/6---4---------|--2-------4-----|--------1---------|
D|----2-------2---|----------2-----2-|----2-------2---|----2h4-----2-----|
A|4-------6-------|0-----------------|4-------6-------|--2---------------|
E|----------------|------------------|----------------|0-----------------|

          i need words                        as wide as sky
e|----------------|------------0-----|----------------|----------0-----|
B|------0-------0-|------0-------0---|------0-------0-|------0-----0---|
G|--2-------4-----|--4/6---4---------|--2-------4-----|--4-------------|
D|----2-------2---|----------2-----2-|----2-------2---|----2---------2-|
A|4-------6-------|0-----------------|4-------6-------|0---------------|
E|----------------|------------------|----------------|----------------|

          i need a lanugage large as          this longing inside
e|----------------|------------0-----|----------------|------0---------|
B|------0-------0-|------0-------0---|------0-------0-|------------0---|
G|--2-------4-----|--4/6---4---------|--2-------4-----|--4-------------|
D|----2-------2---|----------2-----2-|----2-------2---|----2---------2-|
A|4-------6-------|0-----------------|4-------6-------|0---------------|
E|----------------|------------------|----------------|----------------|

          i need a voice                      bigger than mine
e|----------------|------------0-----|----------------|----------0-----|
B|------0-------0-|------0-------0---|------0-------0-|------0-----0---|
G|--2-------4-----|--4/6---4---------|--2-------4-----|--4-----------2-|
D|----2-------2---|----------2-----2-|----2-------2---|----2-----------|
A|4-------6-------|0-----------------|4-------6-------|0---------------|
E|----------------|------------------|----------------|----------------|


          i need a song to sing you           that i've yet to find i need
e|----------------|------------0-----|----------------|------0---------|
B|------0-------0-|------0-------0---|------0-------0-|----------------|
G|--2-------4-----|--4/6---4---------|--2-------4-----|--4-------------|
D|----2-------2---|----------2-----2-|----2-------2---|----2-----------|
A|4-------6-------|0-----------------|4-------6-------|0---------------|
E|----------------|------------------|----------------|----------------|

  you                        i need you                          i need you
e|------------0-----|----------------|----------0-----|------0h2---------|
B|------------------|------0---------|------0-----0---|------------------|
G|------------------|----------------|--2-------------|------------------|
D|----2-2h4-------4-|--2-2---------2-|----2---2-----2-|--4-2-------------|
A|------------------|0---------------|4---------------|2-----------------|
E|4-----------------|----------------|----------------|------------------|

                             i need you                          to be here
e|------------0-----|----------------|----------0-----|------------0-----|
B|------------------|------0---------|------0-----0---|------0-------0---|
G|------------------|----------------|--2-------------|------------------|
D|----2-2h4---------|--2-2---------2-|----2---2-----2-|--4-2-------------|
A|------------------|0---------------|4---------------|2-----------------|
E|4-----------------|----------------|----------------|------------------|

  now                                         to be here now
e|--------------0---|----------------|------------0-----|----------------|
B|----------0-----0-|------0-------0-|------0-------0---|------0-------0-|
G|------------------|--2-------4-----|--4/6---4---------|--2-------4-----|
D|--2h4-6-----------|----2-------2---|----------------2-|----2-------2---|
A|0-------7---7-----|4-------6-------|0-----------------|4-------6-------|
E|------------------|----------------|------------------|----------------|

    
Tap to rate this tab
# A B C D E F G H I J K L M N O P Q R S T U V W X Y Z