Song name
# A B C D E F G H I J K L M N O P Q R S T U V W X Y Z

David Crowder Band - Come Thou Fount Acoustic tab

Come Thou Fount (acoustic)
David Crowder Band
capo 5
drop d tuning

--------------------------------------------------------------------|
--------------------------------------------------------------------|
--------2-22-2-2-2-----2----------------2h4-4-2---------2-22-2-2-2--|
--2h4-2-0-00-0-0-0-2h4-0-2-22-2-2-2-2h4-0-0-0-0-0-2h4-2-0-00-0-0-0--|
--0-0-0-0-00-0-0-0-0-0-0-0-00-0-0-0-0-0-0-0-0-0-0-0-0-0-0-00-0-0-0--|
--0-0-0-0-00-0-0-0-0-0-0-0-00-0-0-0-0-0-0-0-0-0-0-0-0-0-0-00-0-0-0--|

--------------------------------------------------------------------|
--------------------------------------------------------------------|
--------2-22-2-2-2-----2----------------2h4-4-2---------2-22-2-2-2--|
--2h4-2-0-00-0-0-0-2h4-0-2-22-2-2-2-2h4-0-0-0-0-0-2h4-2-0-00-0-0-0--|
--0-0-0-0-00-0-0-0-0-0-0-0-00-0-0-0-0-0-0-0-0-0-0-0-0-0-0-00-0-0-0--|
--0-0-0-0-00-0-0-0-0-0-0-0-00-0-0-0-0-0-0-0-0-0-0-0-0-0-0-00-0-0-0--|

------------------------------------------------------------|
------------------------------------------------------------|
------2h4-4/7-76-6-66/4-4-4-2--------2h4-4/7-6-6/44-4/7-77--|
--2h4-0-0-0---00-0-00---0-0-0-4--2h4-0-0-0---0-0--0-0---00--|
--0-0-0-0-0---00-0-00---0-0-0-0--0-0-0-0-0---0-0--0-0---00--|
--0-0-0-0-0---00-0-00---0-0-0-0--0-0-0-0-0---0-0--0-0---00--|

--------------------------------------------------------------------|
--------------------------------------------------------------------|
--------2-22-2-2-2-----2----------------2h4-4-2---------2-22-2-2-2--|
--2h4-2-0-00-0-0-0-2h4-0-2-22-2-2-2-2h4-0-0-0-0-0-2h4-2-0-00-0-0-0--|
--0-0-0-0-00-0-0-0-0-0-0-0-00-0-0-0-0-0-0-0-0-0-0-0-0-0-0-00-0-0-0--|
--0-0-0-0-00-0-0-0-0-0-0-0-00-0-0-0-0-0-0-0-0-0-0-0-0-0-0-00-0-0-0--|
Tap to rate this tab
# A B C D E F G H I J K L M N O P Q R S T U V W X Y Z