Song name
# A B C D E F G H I J K L M N O P Q R S T U V W X Y Z

David Crowder Band - Surely We Can Change tab

David Crowder Band
Surely We Can Change
Remedy
Tabbed by: Lowrey

Not 100% correct but better than anything else out there... for now

Standard Tuning - Capo 1st Fret OR Tune down 1/2 step - Capo 2nd Fret

Intro/Verse (lyrics: "And the problem is this...")

e|-----------------------------------------|
b|-------1----------0----------0-----------|
G|-------0----------0----------0---5---7---|
D|-----2---2------3---3------5---5---5-----|
A|---3----------5----------7---------------|
E|-----------------------------------------|

Bridge (lyrics: "And I don't know...")

e|----------------------------------------|
b|-------1---------3---------0------------|
G|-------0---------0---------0------------|
D|-----3---3-----5---5-----5---5----------|
A|---3---------5---------7----------------|
E|----------------------------------------|


("What to do with a love like that..."/ "How to be in love like that...")

e|-----------------------------------------|
b|-------1----------0----------0-----------|
G|-------0----------0----------0-----------|
D|-----2---2------3---3------5---5---------|
A|---3----------5----------7---------------|
E|-----------------------------------------|

Chorus (lyrics: When all the love in the world...")

F  C

Chorus ("Surely we can change...")

G  F

*Back to Intro*

Bridge/Closing is just as F with hammering on the G string on and off.  listen and you 
hear it.

Hope you enjoy it and feel free to correct.
Tap to rate this tab
# A B C D E F G H I J K L M N O P Q R S T U V W X Y Z