Guitaretab - guitar tabs
Song name
# A B C D E F G H I J K L M N O P Q R S T U V W X Y Z

David Crowder Band - Be Lifted Or Hope Rising tab

Be Lifted or Hope Rising
David Crowder

Intro (3x)
------------------------------------------------------------|
------------------------------------------------------------|
------------------------------------------------------------|
------------------------------------------------------------|
-0-\-6p-4-h6p-4-h6p-4-h6p-4-h6\-9------ 9-9-9-9-------------|
------------------------------------------------------------|
[ Tab from: http://www.guitaretab.com/d/david-crowder-band/99897.html ]
------------------------------------------------------------|
------------------------------------------------------------|
------------------------------------------------------------|
------------------------------------------------------------|
-0-\-6p-4-h6p-4-h6p-4-h6p-4-h6\-9--9-9-9-911-11-11---------|
------------------------------------------------------------|Verse 1 (Play Intro 4x)
How long till You hear us?
Till You come back, we ain't giving up
How long till You heal us?
Till You come back, we ain't giving up

Chorus (2x)
------------------------------------------------------------|
------------------------------------------------------------|
------------------------------------------------------------|
------------------------------------------------------------|
-6-6-6-4---4--4-4------------6-6-6-4----4---4-4-------------|
---------6--------6--4-2-4-2----------6---------6-4-2-4-2---|

Love rise up
Hope rise up

Intro

Verse 2
How long till You free us?
Till You come back, we ain't giving up
How long till You mend us?
Till You come back, we ain't giving up

Chorus (2x)
Related for Be Lifted Or Hope Rising tab