Guitaretab - guitar tabs
Song name
# A B C D E F G H I J K L M N O P Q R S T U V W X Y Z

David Crowder Band - God Of Wrath tab

Again this is from the new song cafe video. I deciphered what I could and it is pretty accurate.

-------------------------------------------------------------------------------
			     God of Wrath - David Crowder
-------------------------------------------------------------------------------
Tabbed by: Ben
Email: DOUBLE11DOWN@GMAIL.com

Tuning: EAEEBE
[ Tab from: http://www.guitaretab.com/d/david-crowder-band/99898.html ]
Intro/Verse
e|---------x-x-x---------x-x-x-x-x---------x-x-x-----------------------------|
B|---------x-x-x---------x-x-x-x-x---------x-x-x-----------------------------|
E|---------x-x-x---------x-x-x-x-x---------x-x-x-----------------------------|
E|---------x-x-x---------x-x-x-x-x---------x-x-x-----------------------------|
A|--0-h-2--x-x-x--0-h-2--x-x-x-x-x--0-h-3--x-x-x--0-h-3--3-/-5-5-5-5---------|
E|--0---0--x-x-x--0---0--x-x-x-x-x--0---0--x-x-x--0---0--0---0-0-0-0---------|

Chorus - Listen to the song for strumming pattern
e|--0--0--0--0--0--0---------------------------------------------------------|
B|--0--0--0--0--0--0---------------------------------------------------------|
E|--0--0--3--0--0--0---------------------------------------------------------|
E|--0--2--4--2--4--8---------------------------------------------------------|
A|--0--2--4--4--2--6---------------------------------------------------------|
E|--x--0--2--4--4--8---------------------------------------------------------|



| /  slide up
| \  slide down
| h  hammer-on
| p  pull-off
| ~  vibrato
| +  harmonic
| x  Mute note
===============================================================================
Related for God Of Wrath tab
God Of Wrath chords by David Crowder Band