Song name
# A B C D E F G H I J K L M N O P Q R S T U V W X Y Z

David Dondero - 20 Years tab

-----------------------------------------------------------------
20 Years - Permanent Me
-----------------------------------------------------------------
Tabbed by: Bair
Email: bair_morritt@hotmail.com
Tuning: Standard

Intro/ Verse:
e|---------------------------------------------------------------|
B|---------------------------------------------------------------|
G|------------------------------4444-----------------------------|
D|------------------------(x4)--4444--4444--2222--4444--(X2)-----|
A|--2-2-------------------------2222--4444--2222--4444-----------|
E|-------4-4--2-2--00--22-------------2222--0000--2222-----------|
"I had a friend, 20 years...."

Pre-Chorus:
e|---------------------------------------------------------------|
B|---------------------------------------------------------------|
G|---------------------------------------------------------------|
D|--6666--4444--2222--4444--6666--4444--22-22-2222--44-----------|
A|--6666--4444--2222--4444--6666--4444--22-22-2222--44-----------|
E|--4444--2222--0000--2222--4444--2222--00-00-0000--22-----------|
"I watched you, get clean again...."

Chorus:
e|---------------------------------------------------------------|
B|---------------------------------------------------------------|
G|--4444---------------------------------------------------------|
D|--4444--4444--2222--4444--(X4)---------------------------------|
A|--2222--4444--2222--4444---------------------------------------|
E|--------2222--0000--2222---------------------------------------|
"Whoa Oh! Whoa Oh!...."

Outro:
e|---------------------------------------------------------------|
B|---------------------------------------------------------------|
G|---------------------------------------------------------------|
D|-------------------------4--(Let Ring)-------------------------|
A|--2-2--------------------4-------------------------------------|
E|-------4-4--2-2--00--22--2-------------------------------------|
"I had a friend, 20 years...."
Tap to rate this tab
# A B C D E F G H I J K L M N O P Q R S T U V W X Y Z