Guitaretab - guitar tabs
Song name
# A B C D E F G H I J K L M N O P Q R S T U V W X Y Z

David Dondero - Living And The Dead tab

standard tuning
My name is Conner and no one is tabbing any Dave Dondero so im going to have to
at least put this in to start us up and im only 13 someone make some god dang
Dondero tabs!
                                                              
e|----------------------------------|-----0-0-0-0-----------------|
B|----------------------------------|-----1-1-1-1-----------------|
G|----------------------------------|-----0-0-0-0óx8--------------|
D|------------3-2-0----0h2-0~--x1---|-----2-2-2-2-----------------|
A|--/3~--2-0------------------------|-----3-3-3-3-----------------|
e|------------------3---------------|-----------------------------|
try to emphasize the bottom 
strings on the 4th time strumming
e|------3ó-3--1-0-0-------0-0-0-x---------------------------------|
B|------0--0--0-0-1-------1-1-1-x-----1-111111-1-111111-----------|
G|------0---------0-x1----0-0-0-x-x6--2-222222-0-000000-----------|
D|--0-0-0-----------------2-2-2-x--------------2-222222-----------|
A|--2-2-2-----------------3-3-3-x---------------------------------|
e|--3-3-3---------------------------------------------------------|
                                                           ^            
play strings really lightly and I like to hit the strings with  
my palm real hard to make a kind of palm mute but
donít do anything with the pick on that.

e|----------------------------------------------------------------|
B|-------1-1-1-x--------------------------------------------------|
G|-------0-0-0-x-x6ó----------------------------------------------|
D|-------2-2-2-x--------------------------------------------------|   
A|-------3-3-3-x--------------------------------------------------|   
e|----------------------------------------------------------------|

thatíll lead you right to the beginning verse

good luck on learning this and I hope some of you dudes can make some Dondero tabs

please rate good! I love you 

IM me at FallOutBoy860 and thatís the same email address so tell me if you like it or not

please make more!!!

[ Tab from: http://www.guitaretab.com/d/david-dondero/67745.html ]
Related for Living And The Dead tab