Guitaretab - guitar tabs
Song name
# A B C D E F G H I J K L M N O P Q R S T U V W X Y Z

David Dondero - Motion Picture Song tab

Highlighted       Show chord diagrams
                    Motion Picture Song - David Dondero
------------------------------------------------------------------------------------------------|
Tabbed by:FallOutBoy860
Email:FallOutBoy860

Tuning: standard

Will someone make a tab for gotta get back east please?
Lyrics are 99%

Here are some parts youíll need to know.
        E                    1                     2
e|-------------|--------------0h2-2/4p2-0-|-----------------------|
B|-------0-----|------------0-------------|-----------------------|
G|---------1---|--1-2-1-0h1---------------|-1-1-1--4-4--2-2-1-----|
D|---0h2-----2-|--------------------------|-----------------------|
A|-------------|--------------------------|-----------------------|
E|-------------|--------------------------|-----------------------|

Intro:                                          E
e|--5-5-5---5-4---------------0-2-0-------|-----------------------|
B|--------------5-----------0-------0-----|-----0-----------------|
G|-----------------1-1h2p1------------1---|-------1---------------|
D|--------------------------------------2ó|-0h2-----2ó---x4-------|
A|----------------------------------------|-----------------------|
E|----------------------------------------|-----------------------|

Just play the E progression nonstop through the verse.

E                         E
Officer you get me wrong, I was only playiní my song
E                               E
Then you happen to come along, And try to change my key
E                              E
Maybe I would like your tune, You sprung it on me way too soon
E                                     E
Like Christmas on the first of June, Way too soon for me.

 1 x2     E

E
I was strolliní down the trail of tears,
E
just to find you campiní here
E                                 E
Your rifle and your combat gear, Wish youíd go away
E                            E
A Man who lost his memory, Another lost his site to see
E                               E
In the great American tragedy, Sound in the bed youíve made
2                                     E
Where does the motion picture go
2                                                 E
Canít stop the ending to infinitize your soul
1                      1                 E
Will I ever know
[ Tab from: http://www.guitaretab.com/d/david-dondero/76146.html ]
E                                     E
I wannaí read a book thatís right, im gonnaí stay up every night
E                                  E
To understand the one big fight, of people tryiní to be free
E                                 E
Wanting you to write your song, I donít wannaí wait so long
E                                E
Turn it up and play it strong, and let the notes go free
2                                     E
Where does the motion picture go
2                                                 E
Canít stop the ending to infinitize your soul
1                      1                 E
Will I ever know
E                                E
My depressionís my own choice, happiness cant find a voice
E                                E
Cops just come when we rejoice, sadness of our town
E                            E
You put faith in the lord, and feel like you got ignored
E
Anonymous and underscored, and always hanginí around and around
2                                     E
Where does the motion picture go
2                                                 E
Canít stop the ending to infinitize your soul
1                      1                 E
Will I ever know

E                           E
What happens when I sleep, When I donít dream and im in deep
E                                 E
Unconscious about souls to keep, and unaware of liviní
E                      E
Itís like when I die, will I know that I died
E                       E
Or if I ever was alive, Or was I liviní
2                                     E
Where does the motion picture go
2                                                 E
Canít stop the ending to infinitize your soul
1                      1                 E
Will I ever know     Lord I donít think so

Outro:
e|---0------------------------------------------------------------|
B|-----0---------0------------------------------------------------|
G|-------1-------1---1--------------------------------------------|
D|---------2-----2---2--------------------------------------------|
A|-----------2---2---2--------------------------------------------|
E|-------------0-0---0--------------------------------------------|

please rate good! I love you

IM me at FallOutBoy860 and thatís the same email address so tell me if you like it or not

please make more!!!

| /  slide up
| \  slide down
| h  hammer-on
| p  pull-off
| ~  vibrato
| +  harmonic
| x  Mute note
===============================================================================
Related for Motion Picture Song tab