Song name
# A B C D E F G H I J K L M N O P Q R S T U V W X Y Z

David Fonseca - I See The World Through You tab

Help us improve GuitareTab! Take a short survey!
-------------------------------------------------------------------------------
	        I See The World Through You - David Fonseca
-------------------------------------------------------------------------------
Tabbed by: Folen_Scent
Email: folenscent@gmail.com

Tuning:standard

Capo on 3rd fret

Chords used: 
Am    [x02210]
Fadd9 [xx3213]
Cadd9 [x32030]
G     [320033]
Em7   [022030]
F     [133211]
C     [032010]
Em    [022000]


[Main Riff](Intro/Verses/Chorus)

   Am          Fadd9         Cadd9          G
e-|------------------3------|-----------------3--------|
B-|----0h1--------1----1----|-----3----3--------3------|
G-|-------2--2---2--2----2--|-----0-0--0-0----0--0-0---|
D-|---2-----2-2-3---------3-|---2-----2----2------0-0--|
A-|-0-----------------------|-3--------------2-------2-|
E-|-------------------------|---------------3----------|

   Am          Fadd9         Cadd9               Em7
e-|------------------3------|--------------------------|
B-|----0h1--------1----1----|-----3----3-------3----3--|
G-|-------2--2---2--2----2--|-----0-0--0-0----0-0--0-0-|
D-|---2-----2-2-3---------3-|---2-----2---2--2----2----|
A-|-0-----------------------|-3-------------3----2-----|
E-|-------------------------|--------------------------|

[Intro]
Main Riff x1

[Verse]
Am

Fadd9                       Cadd9
You dont understand me now, 

G                         Am
I wonder if you ever will, 

Fadd9                       Cadd9
I wonder if youll ever try.

           Em7            Am
 
Fadd9               Cadd9
Dont get sad about, 

G                             Am
All the strange things I wrote, 

Fadd9                       Cadd9
They faded as the ink dried 

           Em7            


[Chorus A]

         Am                           Fadd9
So I say go, go, hold your fists high, 

Cadd9       G
Grow, slow, stand in for the fight, 

      Am                         Fadd9
Though, I hope you never have to. 

Cadd9                           G

         Am                        Fadd9
So I say run, run, sparkling light, 

Cadd9             G                       Am
Have your fun and then come home at night, 

         Fadd9                        Cadd9
Im sure youll tell me something new, 

         Em7                    Am

Fadd9                               
Yeah I can see the world through you. 

[Main Riff x1]

[Verse]
Frozen lakes and night storms, 
Most youll cross on your own, 
Youll face the biggest landslides. 
Ill catch you on the hardest falls, 
Ill carry you inside this walls, 
Well sing through all the highest times. 

[Chorus A]
So I say go, go, hold your fists high, 
Grow, slow, stand in for the fight, 
Though I hope you never have to. 
So I say run, run, sparkling light, 
Have your fun and then come home at night, 
Im sure youll tell me something new, 
Yeah I can see the world through you. 

[Outro]x2
 
   F         C     G         F       C     G
e-|----1--------0-----3----|----1--------0-----3----|
B-|-----1--------1-----3---|-----1--------1-----3---|
G-|-------2----------------|-------2----------------|
D-|---3--3-3--2------------|---3--3-3--2------------|
A-|--3-------3------2------|--3-------3------2------|
E-|-1--------------3-------|-1--------------3-------|
 
   F         C     G        Em         F
e-|----1--------0-----3----|----0---------1---------|
B-|-----1--------1-----3---|-----0---------1--------|
G-|-------2----------------|-------0-0-------2------|
D-|---3--3-3--2------------|--2---2-2----3--3-3-----|
A-|--3-------3------2------|-2----------3-----------|
E-|-1--------------3-------|-----------1------------|

[Chorus B]

         Am                           Fadd9
So I say go, go, hold your fists high, 

Cadd9       G
Grow, slow, stand in for the fight, 

      Am                         Fadd9
Though, I hope you never have to. 

Cadd9                           G

         Am                        Fadd9
So I say run, run, sparkling light, 

Cadd9             G                       Am
Have your fun and then come home at night, 

         Fadd9                        Cadd9
Im sure youll tell me something new, 

         Em7                    Am

Fadd9                           Cadd9
Things you did and thing you do, 

         Em7                    Am

Fadd9
Yeah I can see the world through you. 

[Ending]
 
e-|---3--0-----------|
B-|---------3--0-----|
G-|----0--0--0--0-0--| x3
D-|--2--2--2--2--2-2-|
A-|-3----------------|
E-|------------------|

e-|---3--0----3------|
B-|-----------1------|
G-|----0--0---0------| 
D-|--2--2--2--2------|
A-|-3---------3------|
E-|------------------|..


| /  slide up
| \  slide down
| h  hammer-on
| p  pull-off
| ~  vibrato
| +  harmonic
| x  Mute note
===============================================================================
Related for I See The World Through You tab