Song name
# A B C D E F G H I J K L M N O P Q R S T U V W X Y Z

David Fonseca - Superstars tab

(intro and the rest of the whistle)

|---------8-------------------------------------|
|-8-9-8-9---8-9-8-9---8-9-8-9---8-9-8-9---9-8-6-|
|-------------------8---------6---------8-------|
|-----------------------------------------------|
|-----------------------------------------------|
|-----------------------------------------------|


|---------8------------------------------------|
|-8-9-8-9---8-9-8-9-----9-8-9-----9-8-9--------|
|-------------------8-8-------6-6-------8/10/8-|
|----------------------------------------------|
|----------------------------------------------|
|----------------------------------------------|

Repet till the whistle ends
Tap to rate this tab
 
# A B C D E F G H I J K L M N O P Q R S T U V W X Y Z