Song name
# A B C D E F G H I J K L M N O P Q R S T U V W X Y Z

David Ford - State Of The Union tab

----------------------------------------------------------------------------------------------------|
STATE OF THE UNION-David Ford
----------------------------------------------------------------------------------------------------|
Tabbed by: Dave Jarman
Email:

Tuning: Standard

e|------------3---------------3-------------------3---------------3----------|
B|----------3---3----------3-----3-------------3----3-----------3---3--------|
G|-------0--------0-----0----------0--------0---------0-------0-------0------|
D|----2---------------0------------------------------------------------------|
A|--------------------------------------2-----------------3------------------|
E|---------------------------------------------------------------------------|
             Sweet     dreams    all     met     with     derrision......etc

Thats the hook for the whole song!

link: http://www.davidford.mu/go.php?object=home
Tap to rate this tab
 
# A B C D E F G H I J K L M N O P Q R S T U V W X Y Z