Guitaretab - guitar tabs
Song name
# A B C D E F G H I J K L M N O P Q R S T U V W X Y Z

David Ford - Cheer Up You Miserable Fuck tab

-------------------------------------------------------------------------------
			     Cheer Up- David Ford
-------------------------------------------------------------------------------
Tabbed by: Dave Jarman
Email:Jimoa13@msn.com

Tuning:Standard: Capo 3

Acoustic part/chords:

   (Bb)   (D#add9?) (Fsus4?)
    G      Cadd9    Dsus4

e|--3-------3--------3-----------------------------------------------------------|
B|--3-------3--------3-----------------------------------------------------------|
G|--0-------0--------2-----------------------------------------------------------|
D|--0-------2--------0-----------------------------------------------------------|
A|--2-------3--------x-----------------------------------------------------------|
E|--3-------x--------x-----------------------------------------------------------|


Electric Riff: Played loosely/with slight variation so use the tab as a rough guide; as 
as you get the hammer ons/pull offs in the right places.
[ Tab from: http://www.guitaretab.com/d/david-ford/71496.html ]
    G                       Cadd9      <             Dsus4              Cadd9
e|-----3-3-----3-3-------3-------3-3---3----3-3--3----3--3-3-3--3-3-3----3----|
B|-----3-3-----3-3-------3-------3-3---3----3-3--3----3--3-3-3--3-3-3----3----|
G|-----0-0--0--0-0-------0---0---0-0---0----0-0--0----2--2-2-2--2-2-2p0--0----|
D|--0-------0----------------2-------- 2---------2p0--0------0------0----2----|
A|--2-------2-------0h2------3-------------------3-----------------------3----|
E|--3-------3----------------x------------------------------------------------|
                     G
e|--3-3--3-3-3-3--------------------|
B|--3-3--3-3-3-3--------------------|
G|--0-0--0-0-0-0-----0--------------|
D|-------2-----0h2p0-0--------------|  Repeat
A|-------3-----0-----2--------------|
E|-------------------3--------------|


 G                       Cadd9                           Dsus4
Ghosts, walk through the walls, They catch your rise and falls
                   Cadd9
Then sink back to sleeping, again
     G                    Cadd9                           Dsus4
And dust, it settles on shelves, Will you shake me from myself, And tell me
      Cadd9
I'm alright?

And all the time on your own, The flowers have grown, Under your feet
And donít, donít you think that its time
You said ďhey this oneís mineĒ, Maybe do what you want to do?
Cos you, well you are no fun, and Iím so dumb, but please let us not be lonely, again
And you, you wear your mistakes and I know mine, but please let us not be lonely,
this time

You get the idea; this has gone on long enough(!).
Related for Cheer Up You Miserable Fuck tab