Song name
# A B C D E F G H I J K L M N O P Q R S T U V W X Y Z

David Garza - Kinder tab

----------------------------------------------------------------------------

			Kinder - Allan Holdsworth

----------------------------------------------------------------------------


Tabbed by:Evil_Empire24-7

Tuning:EADGBe

These chords were used in fred by tony williams lifetime

---------------------------------------------------------------------------

                             +Chords+

Dm7:   x57565
D9:    x5455x
Cmaj7: x3545x

---------------------------------------------------------------------------


e|---5-5------|---5-5------|--------5--|--------5---------------------|
B|---6-6-5-5--|---6-6-5-5--|--5-5-5-6--|--5-5-5-6---------------------|
G|---5-5-5-5--|---5-5-5-5--|--4-4-5-5--|--4-4-5-5---------------------|
D|---7-7-4-4--|---7-7-4-4--|--5-5-4-7--|--5-5-4-7---------------------|
A|-5-5-5-5-5--|-5-5-5-5-5--|--3-3-5-5--|--3-3-5-5---------------------|
E|------------|------------|-----------|------------------------------|

---------------------------------------------------------------------------
Tap to rate this tab
# A B C D E F G H I J K L M N O P Q R S T U V W X Y Z