Song name
# A B C D E F G H I J K L M N O P Q R S T U V W X Y Z

David Gilmour - A Pocketful Of Stones tab

Tab of ---A Pocketful of Stones--- to ---On An Island---
Music by David Gilmour
Lyrics by Samson
Tabbed by ---guitarclimax---


E||----------------------------------------------------|
B||----------------------------------------------------|
G||--10---------------10b-9---10------10-12-12b--------|
D||----------------------------------------------------|
A||----------------------------------------------------|
E||----------------------------------------------------|


-------------------------------------------------------|
-------------------------------------13--13------------|
--12---10-9-10--------------10S--14--------------------|
-------------------------------------------------------|
-------------------------------------------------------|
-------------------------------------------------------|

-------------------------------------------------------------------|
--13b-12-13------------------13h--14--14b--(16)(16)(16)--------14--|
-------------------------------------------------------------------|
-------------------------------------------------------------------|
-------------------------------------------------------------------|
-------------------------------------------------------------------|

---------------------------------13------------13------/17--|
--13--------11--13--13b-------------13b------------13-------|
------------------------------------------------------------|
------------------------------------------------------------|
------------------------------------------------------------|
------------------------------------------------------------|

------------------------17--17--17--17--18--20--20b----20----|
-------------------------------------------------------------|
-------------------------------------------------------------|
-------------------------------------------------------------|
-------------------------------------------------------------|
-------------------------------------------------------------|

--18----17---------------------------------------------------------|
-----------------------------------------------13b--13b--13--------|
-----------------------------------15-----L------------------------|
-------------/11--13---13b---13-11---------------------------------|
-------------------------------------------------------------------|
-------------------------------------------------------------------|

---------------------------------------------------------------------|
--9--11--7-9---------------------------------------------------------|
-------------8-10-6-7h-8-5-7h-8-5---------------------8-----10p--8S--|
-------------------------------------7S----6--------8-----8----------|
----------------------------------/8---------------------------------|
---------------------------------------------------------------------|

-------------------------------------------------------|
------------------------------10h-11-11----------11-13-|
--6------------------/10--13---------------------------|
-------------------------------------------------------|
-------------------------------------------------------|
-------------------------------------------------------|

-------------------------13-----------------------------|
--13--------11-13-13b----------11--------11--13b--13----|
--------------------------------------------------------|
--------------------------------------------------------|
--------------------------------------------------------|
--------------------------------------------------------|

------------------------------------------------||
------------------------------------------------||
--14S--10--------10S----------12----------------||
------------------------------------------------||
------------------------------------------------||
------------------------------------------------||


Tablature Legend
----------------
L - tied note
x - dead note
g - grace note
(n) - ghost note
> - accentuded note
NH - natural harmonic
AH - artificial harmonic
TH - tapped harmonic
SH - semi harmonic
PH - pitch harmonic
h - hammer on
p - pull off
b - bend
br - bendRelease
pb - preBend
pbr - preBendRelease
brb - bendReleaseBend
\n/ - tremolo bar dip
\n - tremolo bar dive
-/n - tremolo bar Release up
/n\ - tremolo bar inverted dip
/n - tremolo bar return
-\n - tremolo bar Release down
S - shift slide
s - legato slide
/ -  slide into from below or out of upwards
\ -  slide into from above or out of downwards
~ - vibrato
W - wide vibrato
tr - trill
TP - tremolo picking
T - tapping
S - slap
P - pop
< - fade in
^ - brush up
v - brush down
Tap to rate this tab
# A B C D E F G H I J K L M N O P Q R S T U V W X Y Z