Song name
# A B C D E F G H I J K L M N O P Q R S T U V W X Y Z

David Gilmour - Cry From The Street tab

                   CRY FROM THE STREET
                      David Gilmour

              submitted by: Eric Flament

e|----------------------------------------------------------
B|-----------------P----------------------------------------
G|-3-3-5----------5-3-5-5--P--------------------------------
D|-3-3-5----------5-3-5-5-5-3-5-5-3---3-3-------------------
A|----------------------------------5-----------------------
E|----------------------------------------------------------

e|----------------------------------------------------------
B|----------------------------------------------------------
G|-3-3-5---------3-3-5--------------------------------------
D|-3-3-5---------3-3-5--3-3--------B------------------------
A|--------------------------5-3-5-5^(6)-3-------------------
E|----------------------------------------6-3---------------
                          muted at end and '3'quickly struck
e|-------------------------------------^3-------------------
B|----------------------------------------------------------
G|-3-3-5-3-----3-3-5-3----------3-3-5-3----------P----------
D|-3-3-5-3-----3-3-5-3----------3-3-5-3-----3-3-5--3--------
A|----------------------------------------------------------
E|-------------------------3-3------------------------------

e|--------------------------------------------------3-------
B|-------------------------------------let ring-------------
G|-3-3-5-3-----------P----------3-3-5-3---------------------
D|-3-3-5-3------3-3-5--3--------3-3-5-3---------------------
A|----------------------------------------------------------
E|----------------------------------------------------------

e|---------------------------------------3------------------
B|----------------------------------------------------------
G|-3-3-5-3-----------P----------3-3-5-3-------------P-------
D|-3-3-5-3------3-3-5--3--------3-3-5-3--------3-3-5--3-----
A|----------------------------------------------------------
E|----------------------------------------------------------

e|----------------------------------------------------------
B|----------------------------------------------------------
G|-3-3-5-3----------------------3-3-5-3----------P----------
D|-3-3-5-3----------------------3-3-5-3--------3-3-5--3-----
A|----------------------------------------------------------
E|-----------------3-3--------------------------------------

e|---------3------------------------------------------------
B|----------------------------------------------------------
G|-3-3-5-3-----------P----------3-3-5-3------------P--------
D|-3-3-5-3------3-3-5--3--------3-3-5-3-------3-3-5--3------
A|----------------------------------------------------------
E|----------------------------------------------------------

e|---------3------------------------------------------------
B|-------------------------------B--B-----------------------
G|-3-3-5-3----------------------5^-5^-5-3----------P--------
D|-3-3-5-3-----5-3-3-5--3---------------------3-3-5--3------
A|----------------------------------------------------------
E|----------------------------------------------------------

e|---------3------------------------------------------------
B|----------------------------------------------------------
G|-3-3-5-3------------P---------3-3-5-3------------P--------
D|-3-3-5-3------3-3-5--3--------3-3-5-3-------3-3-5--3------
A|----------------------------------------------------------
E|----------------------------------------------------------

e|----------------------------------------------------------
B|------------------------------8--8-8--8------B--B-------B-
G|-3-3-5-3----------------------8--8-8--8-----5^-5^--3-3-5^-
D|-3-3-5-3----------------------8--8-8--8-------------------
A|----------------------------------------------------------
E|----------------3-3---------------------------------------

e|----------------------------------------------------------
B|-10--10-10--10--------------------------------------------
G|-10--10-10--10----5--5-5--5------3-3-5-3--------P---------
D|-10--10-10--10-------------------3-3-5-3---3-3-5--3-------
A|----------------------------------------------------------
E|----------------------------------------------------------
                                the words come in right here
e|----------------------------------------------------------
B|----------------------------------------------------------
G|-3-3-5-3----------------------3-3-5-3-----------P---------
D|-3-3-5-3----------------------3-3-5-3------3-3-5--3-------
A|----------------------------------------------------------
E|-----------------3-3--------------------------------------

It's pretty simple Good Luck!!
Tap to rate this tab
 
# A B C D E F G H I J K L M N O P Q R S T U V W X Y Z