Song name
# A B C D E F G H I J K L M N O P Q R S T U V W X Y Z

David Gilmour - No Way tab

David Gilmour
"No Way"
David Gilmour
1978

This is a great song off of David Gilmour's forgotten debut album. 
This is my first tab so please give feedback. 
This is just the rhythm guitar. 
I am working on the solo now. 
ENJOY!!

Key:
h=Hammer


Intro:
e|-------------------------------------------------------------------------|
B|-------------------------------------------------------------------------|
G|--------------------------1----------------------------------------------|Repeat
D|--------------1h3-3---------------1h3------------------------------------|4x
A|-------------------------------------------------------------------------|
E|-------------------------------------------------------------------------|

e|-------------------------------------------------------------------------|
B|-------------------------------------------------------------------------|
G|--------------------------1----3-----------------------------------------|1x
D|--------------1h3-3-----3------------------------------------------------|
A|-------------------------------------------------------------------------|
E|-------------------------------------------------------------------------|

Verse 1:
e|-------------------------------------------------------------------------|
B|-------------------------------------------------------------------------|
G|--------------------------1----------------------------------------------|Repeat
D|--------------1h3-3---------------1h3------------------------------------|Until Solo
A|-------------------------------------------------------------------------|
E|-------------------------------------------------------------------------|

e|-------------------------------------------------------------------------|
B|-------------------------------------------------------------------------|
G|--------------------------1----3-----------------------------------------|At start
D|--------------1h3-3-----3------------------------------------------------|of solo
A|-------------------------------------------------------------------------|
E|-------------------------------------------------------------------------|

Solo 1:
e|-------------------------------------------------------------------------|
B|-------------------------------------------------------------------------|
G|--------------------------1----------------------------------------------|Repeat
D|--------------1h3-3---------------1h3------------------------------------|Through Solo
A|-------------------------------------------------------------------------|
E|-------------------------------------------------------------------------|

Bridge:
e|-------------------------------------------------------------------------|
B|-------------------------------------------------------------------------|
G|--------------------------1----------------------------------------------|Repeat
D|--------------1h3-3---------------1h3------------------------------------|4x
A|-------------------------------------------------------------------------|
E|-------------------------------------------------------------------------|

e|-------------------------------------------------------------------------|
B|-------------------------------------------------------------------------|
G|--------------------------1----3-----------------------------------------|1x
D|--------------1h3-3-----3------------------------------------------------|
A|-------------------------------------------------------------------------|
E|-------------------------------------------------------------------------|

Verse 2:
e|-------------------------------------------------------------------------|
B|-------------------------------------------------------------------------|
G|--------------------------1----------------------------------------------|Repeat
D|--------------1h3-3---------------1h3------------------------------------|Until Solo
A|-------------------------------------------------------------------------|
E|-------------------------------------------------------------------------|

e|-------------------------------------------------------------------------|
B|-------------------------------------------------------------------------|
G|--------------------------1----3-----------------------------------------|At start
D|--------------1h3-1-----3------------------------------------------------|of solo
A|-------------------------------------------------------------------------|
E|-------------------------------------------------------------------------|

Solo 2:
e|-------------------------------------------------------------------------|
B|-------------------------------------------------------------------------|
G|--------------------------1----------------------------------------------|Repeat
D|--------------1h3-3---------------1h3------------------------------------|Through Solo
A|-------------------------------------------------------------------------|
E|-------------------------------------------------------------------------|

Fade Out

Hope it sounds good to you. For best results use a Fender Strat with a tinge of distortion. 
Tap to rate this tab
# A B C D E F G H I J K L M N O P Q R S T U V W X Y Z