Song name
# A B C D E F G H I J K L M N O P Q R S T U V W X Y Z

David Gilmour - Dont tab

DONT / DAVID GILMOUR
--------------------

From "Live At Abbey Road - Tribute to elvis"
--------------------------------------------

Tuning - Standard

Tabbed by Arie Ohana, December, 2009

Legend:
-------
c	Curl
UB	Unison bend
~	Vibrato
/	Slide
h	Hammer on
p	Pull off
(8)	Ghost note, or note played while bending
x	Muted note
b	Bend
r	Release


E -----------------------------------------------------------------------------------|
B -----------------------------------------------------------------------------------|
G -----------------------------------------------------------5------7b9--7b9---------|
D -------------x-x-3 slide up ----------------------------------5--------------------|
A ---3---------x-x-3 slide up --------3--5--5b6b5--3~---5s7--------------------------|
E ------5c--1~--------------------/5-------------------------------------------------|


                             while bending                       1:55
E -----------------------------------------------------------------------------------|
B ----------8b10r8--x--8b10--(10)--(10)--(10)------------13b15--r13-11~--------------|
G ----5-5---------------------------------------10-10--------------------------------|
D -----------------------------------------------------------------------------------|
A -----------------------------------------------------------------------------------|
E -----------------------------------------------------------------------------------|


                                          Am          Am          Am          G#m  Gm
E -------------------------------------5--5------------8-----------------------------|
B ---11b13--13--11--10h11p10--10~----1s5--5--5-----/10---------/13-13-13-13-13-12-11-|
G -----------------------------------1s5--5----5----/9---------/14-14-14-14-14-13-12-|
D -------------------------------------------------------10--------------------------|
A -----------------------------------------------------------------------------------|
E -----------------------------------------------------------------------------------|


                     while bending
E -----------------------------------------------------------------------------------|
B ------11-13--13b15--(15)--(15)~--r13p11--13b15--11-13~-----13b15--13---------------|
G ---12-----------------------------------------------------------------12b14--------|
D -----------------------------------------------------------------------------------|
A -----------------------------------------------------------------------------------|
E -----------------------------------------------------------------------------------|


2:13       F                                 C
E ----/13--13--13--13------------------------8-8-8-8------------8--slide up----------|
B ----/13--13--13--13------------------------8-8-8-8------------8--slide up----------|
G ---------14--14--14---15--14p13------------9-9-9-9--10--9p8--(8)-slide up----------|
D ---------------------------------15~s0---------------------------------------------|
A -----------------------------------------------------------------------------------|
E -----------------------------------------------------------------------------------|


    UB      UB         UB      UB        UB
E -----------------------------------------------------------------------------------|
B --8-------10---------11------13--------15------15-18p15--18b20--18~----------------|
G --10b12---12b14------13b15~--15b17--0--17b19~--------------------------------------|
D -----------------12----------------------------------------------------------------|
A -----------------------------------------------------------------------------------|
E -----------------------------------------------------------------------------------|

E -----------------20----------------------------------------------------------------|
B --18--20--20b22------20b22---20b22r20----20b22--20--18--17h18p17h18p17~------------|
G -----------------------------------------------------------------------------------|
D -----------------------------------------------------------------------------------|
A -----------------------------------------------------------------------------------|
E -----------------------------------------------------------------------------------|

E ------------------------------------------------------------------------------------|
B ------------------------------------------------------------------------------------|
G--17--19b21r19p17----19b21r19p17--17~------19--19b21--17--19p17----------------------|
D --------------------------------------/19-----------------------19--17--17~s0-------|
A ------------------------------------------------------------------------------------|
E ------------------------------------------------------------------------------------|
Tap to rate this tab
# A B C D E F G H I J K L M N O P Q R S T U V W X Y Z