Song name
# A B C D E F G H I J K L M N O P Q R S T U V W X Y Z

David Gilmour - This Heaven tab

-------------------------------------------------------------------------------
			     This Heaven - David Gilmour
-------------------------------------------------------------------------------
Tabbed by: Malte Lau Petersen
Email: legebrion@hotmail.com
Verified the other tab here from ug and added slide, rythm and lyrics
Tuning: EADGBE

Not that hard to either play the guitar or sing, but doing both at the same time is!
Therefore, i wrote the rythm down for both guitar and song

1xxxxxxx2xxxxxxx is the rythm beats.


   1       x       x       x       x       x       x       x       
E |x-------------------------------------------x-------------------|
B |x-------------------------------------------x-------------------|
G |10--------------8---7-----------------------10------------------|
D |10---------6-/10------------8---6-----------10------------------|
A |8-------8---------------------8-------------8-------------------|
E |8-------------------------------------------8-------------------|
   2       x       x       x       x       x       x       x      
E |x---------------------------------------------------------------|
B |x---------------------------------------------------------------|
G |10--------------8---7-------------------------------------------|
D |10---------6-/10------------8---6-------8---5-------------------|
A |8-------8---------------------8---------------------------------|
E |8---------------------------------------------------------------|

10 = slide up to 10




########### Verse: ##########################
1xxxx

x       x      x    2   x  x   xx
All the pieces fall into place
x       x      x     1   xxxx 
When we walk these fields
x     x        x   2       x    x
And I reach out to touch your face
     x       x      x     x   x     
This earthly heaven is enough for me
#############################################
########### Chorus: #########################
1

x            x        x         x     xxx2
So break the bread and pour the wine
x         x        x        x   x      x   x1
I need no blessings but I'm counting mine
x            x        x      x    xxx2
Life is much more than money buys
     x         x       x   x   x        x   x
When I see the faith in my children's eyes
#############################################

I've felt the power in a holy place
And wished for comfort when in need
Now I'm here in a state of grace
This earthly heaven is enough for me

So break the bread and pour the wine
I need no blessings but I'm counting mine

So break the bread and pour the wine
I need no blessings but I'm counting mine
Life is much more than money buys
When I see the faith in my children's eyes
Tap to rate this tab
# A B C D E F G H I J K L M N O P Q R S T U V W X Y Z