Song name
# A B C D E F G H I J K L M N O P Q R S T U V W X Y Z

David Gilmour - Then I Close My Eyes tab

-----------------------------------------------------------------------------
			      Then I Close My Eyes
-----------------------------------------------------------------------------
Tabbed by: Zach (Island_Dweller)
Email: PM me on the ultimate-guitar.com forums instead.

Tuning: E standard.
Note: This will be quite a long endeavor, so I've just written out the repeating rhythm 
for now, which can be first heard at ~52 seconds until the end of the song. Up until 
point (0:52) I believe its the synth rather than the guitar. I play it from 0:35 anyway.

Riff 1
(0:52)
e|--------------------------------------------------------------------------|
B|-------------------------------------------------------------------------@|
G|-------11-13-11-----------------------------------------------------------|
D|--9/13----------13\9------------------------------------------------------|
A|7------------------------------------------------------------------------@|
E|--------------------------------------------------------------------------|


Riff 2
(1:18)
e|--------------------------------------------------------------------------|
B|-------------------------------------------------------------------------@|
G|-------11-13-11-----------------------------------------------------------|
D|--7/11----------11\7------------------------------------------------------|
A|9------------------------------------------------------------------------@|
E|--------------------------------------------------------------------------|

*All these notes can be played by sliding up and down, and sounds rather good that way 
The @ signs at the end of the measure are my best efforts at replicating what musicians 
a repeat sign, which  basically means play the whole thing over again.

************************************
| /   slide up
| \   slide down
************************************
Tap to rate this tab
# A B C D E F G H I J K L M N O P Q R S T U V W X Y Z