Song name
# A B C D E F G H I J K L M N O P Q R S T U V W X Y Z

David Gilmour - Castellorizon tab

Castellorizon, Gdansk version by David Gilmour

This is my first submission, but I think I got every note and nuance in the solo.
I got it from listening to the song as well as watching the concert to find exactly 
DG was playing on the neck.
Some of the notes are very subtle, but listed anyway.

One hint on this tab:  If the notes are separated, that means you pick that string.  So, 
group of notes together with no space means that each of those notes should be heard 
only hitting the string once.

e|-------------------------------------------------------------------------|
B|------12b13~(13)~(13)~r12--12b13r12p10-12b13r12p10-12\-------------------|
G|--9-9--------------------------------------------------9-9~~~~\----------|
D|-------------------------------------------------------------------------|
A|-------------------------------------------------------------------------|
E|-------------------------------------------------------------------------|

e|-------------------------------------------------------------------------|
B|-------------------------------------------------------------------------|
G|--9h11-11b12~~r11--9h11-11b12~(12)~r11-9\7-7/9---------------------------|
D|-----------------------------------------------9-9\7/9\------------------|
A|--------------------------------------------------------7-7~~------------|
E|-------------------------------------------------------------------------|


e|---------------------------------------------------12--------------------|
B|--13-15-15b17~~~15b18r15b17r15~~15b17r15-15p12--15~--15b17~~-------------|
G|----------------------------------------------14-------------------------|
D|-------------------------------------------------------------------------|
A|-------------------------------------------------------------------------|
E|-------------------------------------------------------------------------|

e|----------------3p0------------------------------------------------------|
B|------3-5-3/5-5----3-3/5-5~~\--------------------------------------------|
G|--2/4-------------------------2b3r2p0---2---0h2-2b3r2b4-~~~wb~~~~~~------|
D|-------------------------------fh-----2---2--------fh--------------------|
A|-------------------------------------------------------------------------|
E|-------------------------------------------------------------------------|

e|--19b20r19-17h19-19b20~(20)~r19p17~19b20r19p17-19------------------------|
B|-------------------------------------------------17~17~~~\---------------|
G|-------------------------------------------------------------------------|
D|-------------------------------------------------------------------------|
A|-------------------------------------------------------------------------|
E|-------------------------------------------------------------------------|

                       [--------pick string on bends and releases------------|
e|---------------------------------------------------------------------------|
B|----8-10-10b11r10p8--10b11r10--10b11r10--10b11r10--10b11r10--10b11r10------|
G|--/9-----------------------------------------------------------------------|
D|---------------------------------------------------------------------------|
A|---------------------------------------------------------------------------|
E|---------------------------------------------------------------------------|

e|-----------------------------------12------------------------------------|
B|--10b11r10b11r10p8-10-8-10b11r10b12hb-(12)r10p8-10-8-10-10b12r10b12r10---|
G|---------------------9----------------------------9-------------------9~\|
D|-------------------------------------------------------------------------|
A|-------------------------------------------------------------------------|
E|-------------------------------------------------------------------------|


e|--17h19-19b20-19b22r-19-19p17-19b20r19p17-19-----------------------------|
B|---------x----------------------------------17-17~~~\--------------------|
G|-------------------------------------------------------------------------|
D|-------------------------------------------------------------------------|
A|-------------------------------------------------------------------------|
E|-------------------------------------------------------------------------|

e|-------12----15b18-15-14p12-11-------------------------------------------|
B|---/12---12------------x------12-12b13-10-12b13r10-12b13r10-12b13r10-12--|
G|-------------------------------------------------------------------------|
D|-------------------------------------------------------------------------|
A|-------------------------------------------------------------------------|
E|-------------------------------------------------------------------------|

/  slide up
\  slide down
h  hammer-on
p  pull-off
~  vibrato
+  harmonic
x  Mute note
b  Bend
r  Release
Wb Whammy bar
fh False harmonic
() Bent string being picked
hb Hold bend
Tap to rate this tab
# A B C D E F G H I J K L M N O P Q R S T U V W X Y Z