Song name
# A B C D E F G H I J K L M N O P Q R S T U V W X Y Z

David Gilmour - So Far Away tab

                                          Artist - David Gilmour
                                         ************************
                                            Song - So Far Away
                                           ********************
                                          Album - David Gilmour 
                                         ***********************
                                           Tabbed By - Ayreon77
                                          **********************



INTRO - C F C
******

VERSE 1
********
C 
 What am I suspended here

Should I kid myself that I have no fear
Eb
 I get no choice, I just have to wait
Am
 It may already be too late
G
 I don't know what's going on
                      F
She is here, but I am gone
     Em      D
I am gone


--------------------------------------------
VERSE 2
********
C
 My love is lying here

She's far away though she looks so near
Eb
 Time will tell she says to me
Am
 When a warm coat is all I need
G
 Her peace of mind, her strentgh of will

It will come she's sure it will
F
How can I put my mind at rest
                            Em     D
I feel I'm coming up second best


--------------------------------------------
CHORUS
*******
        Bb                 C
And I'm caught with my own life
          D               C
Is this a dream, or is it real life
     Bb                F
Oooh sleep, come on me soon
        Ab               Eb
I can't bare this lonely room


--------------------------------------------
02:13
SOLO
*****
[-------------------|-----------b-r-----13--b-r----------]
[--b-----------b----|----13-15-15---13-----15--13--15----]
[-10-~-~-~-9--12-12-|-12------------------------------15-]
[-------------------|------------------------------------]
[-------------------|------------------------------------]
[-------------------|------------------------------------]
 
                                             still bent                     
                                           b  |
[--------rb----|-------|----12-12-|----12-14-14-|--------b-------]
[----11-11-----|-------|----------|-------------|-15-12-15-15-12-]
[-10--------10-|-15-14-|-14-------|-14----------|----------------]
[--------------|-------|----------|-------------|----------------]
[--------------|-------|----------|-------------|----------------]
[--------------|-------|----------|-------------|----------------]


[-------12-------------12--------------|-------------------]
[--b-12----15-12--b-12----15-12--br----|-------12-12-13----]
[-14-------------14-------------14--12-|-12-14----------14-]
[--------------------------------------|-------------------]
[--------------------------------------|-------------------]
[--------------------------------------|-------------------]

                                       b
[--------------------------------|----14--14-12---b-r----|----------]
[-------12-10-12-13--10-~--12----|-12------------15---15-|----------]
[-12-14-----------------------12-|-----------------------|-12-11----]
[--------------------------------|-----------------------|-------12-]
[--------------------------------|-----------------------|----------]
[--------------------------------|-----------------------|----------]

                              slow  hold         slow   hold
 GUITAR 1                     bend  bend         bend   bend
[------b-r----|--b---b-r----|--b-----|-|--rb----|--b-----|-|-rb-------]
[-11--13---13-|-13--17---17-|-17----17-|-17--13-|-11----11-|-11--11---]
[-------------|-------------|----------|--------|----------|----------]
[-------------|-------------|----------|--------|----------|----------]
[-------------|-------------|----------|--------|----------|----------]
[-------------|-------------|----------|--------|----------|----------]
|                             slow  hold         slow  hold           |
|GUITAR 2                     bend  bend         bend  bend           |
[-------------|-------------|--------|-|--------|--------|-|----------]
[------b-r----|--b---b-r----|--b-----|-|--rb----|--b-----|-|--b--b----]
[-15--17---17-|-17--21---21-|-21----21-|-21--17-|-15----15-|-20-20-20-]
[-------------|-------------|----------|--------|----------|----------]
[-------------|-------------|----------|--------|----------|----------]
[-------------|-------------|----------|--------|----------|----------]


--------------------------------------------
VERSE 3
********
C
 Look at that hand lying there

The room is dark she shows no fear
Eb
 I'm lying still, my eyes are wide
Am
 My heart is pumping, I'm still alive
G
 I'm still awake against my will

What will it ever take
              F
To still this burning in me

Em D


--------------------------------------------
CHORUS
*******
        Bb                 C
And I'm caught with my own life
          D               C
Is this a dream, or is it real life
     Bb                F
Oooh sleep, come on me soon
        Ab               Eb
I can't bare this lonely room


--------------------------------------------

Bb                F
sleep, come on me soon
        Ab               Eb
I can't bare this lonely room


ohhhhhh


Bb                    F
sleep, don't take too long
        Ab                  Eb
Can you sing me this lonely song


ohhhhhh

ohhhhhh

ohhhhhh


Fade out



A nice track. Enjoy..........
Tap to rate this tab
# A B C D E F G H I J K L M N O P Q R S T U V W X Y Z