Song name
# A B C D E F G H I J K L M N O P Q R S T U V W X Y Z

David Gilmour - Cry From The Street tab

                                          Artist - David Gilmour
                                         ************************
                                        Song - Cry From The Street
                                       ****************************
                                          Album - David Gilmour  
                                         ***********************
                                           Tabbed By - Ayreon77
                                          **********************


I usually say repeat verse or chorus, keeps the tab shorter, 
But each verse, is slightly different, so i tabbed all 3 verses out.

Distorted Guitar
*****************                                                                  
[-------|------------------|-------------------------------------|-----]
[-------|------------------|-------------------------------------|-----]
[---2-4-|---2-2--p------p--|---2-2--p---2-2--p-----p-------------|-2---]
[---2-4-|---2-2-4-2-4-4--2-|---2-2-4-2--2-2-4-2-4---2-----s------|---2-]
[-4-----|-4----------------|-4------------------------4--4\2-0---|-----]
[-------|------------------|-----------------------------------2-|-----]

00:13
[---------|-------------|---------2-|----------|-----------|----------]
[---------|-------------|---------2-|----------|-----------|----------]
[---2-4-2-|---2-4-2-----|---2-4-2---|-------p--|---2---4-2-|-------p--]
[---2-4-2-|---2-4-2-----|---2-4-2---|---2-4--2-|---2---4-2-|---2-4--2-]
[-4-------|-4-----------|-4---------|-4--------|-4---4-----|-4--------]
[---------|---------2-2-|-----------|----------|-----------|----------]

00:28
[------------2-|---------|----------|---------2-|--------|-----------------]
[------------2-|---------|----------|---------2-|--------|-----------------]
[---2-4-2------|---2-4-2-|-------p--|---2-4-2---|-----p--|---2---4-2-------]
[---2-4-2------|---2-4-2-|---2-4--2-|---2-4-2---|-2-4--2-|---2---4-2---4-4-]
[-4------------|-4-------|-4--------|-4---------|--------|-4---4-------4-4-]
[--------------|---------|----------|-----------|--------|-----------------]

00:42
[-----------|--------|---------2-|----------|---------|----------]
[-----------|--------|---------2-|----------|---------|----------]
[---2---4-2-|-----p--|---2-4-2---|-------p--|---2-4-2-|-------p--]
[---2---4-2-|-2-4--2-|---2-4-2---|---2-4--2-|---2-4-2-|---2-4--2-]
[-4---4-----|--------|-4---------|-4--------|-4-------|-4--------]
[-----------|--------|-----------|----------|---------|----------]

00:53
[---------2-|------------|---------------|--------|---------2-|--------]
[---------2-|------------|---b-rbp-------|--------|---------2-|--------]
[---2-4-2---|---------p--|---4-4------p--|-----p--|---2-4-2---|-2---p--]
[---2-4-2---|-4---2-4--2-|-4-4-4--2-4--2-|-2-4--2-|---2-4-2---|-2-4--2-]
[-4---------|---4--------|---------------|--------|-4---------|--------]
[-----------|------------|---------------|--------|-----------|--------]

01:03                                      01:10   D              E
[---------|----------|-----------2--------|----------------------|----------]
[---------|----------|-----------2--------|--------7---7-7-7-7-7-|-9--9-9-9-]
[---2-4-2-|-------p--|---2-4-2----------2-|-2-4----7---7-7-7-7-7-|-9--9-9-9-]
[---2-4-2-|---2-4--2-|---2-4-2----------2-|-2-4----7-----7-7-7-7-|-9--9-9-9-]
[-4-------|-4--------|-4------------------|--------5-----5-5-5-5-|-7--7-7-7-]
[---------|----------|-------------2-2----|----------------------|----------]

01:17
[-------|----------|------------]
[-------|----------|------------]
[-2-4-2-|-------p--|-2-4-2------]
[-2-4-2-|---2-4--2-|-2-4-2------]
[-------|-4--------|------------]
[-------|----------|--------2-2-]


------------------------------------------------------------------
01:25
VERSE 1
********
Black shadows dance
Beyond the neon glow
There's rumors in your head
You just won't let it to go

Hold on so tight
It makes your blood run cold
The way is blind
Try to save your soul

Don't even pray
Just cry from the street

      Black shadows.......                     There's rumors.....
[---------|----------|---------|----------|---------|----------]
[---------|----------|---------|----------|---------|----------]
[---2-4-2-|-------p--|---2-4-2-|-------p--|---2-4-2-|-------p--]
[---2-4-2-|---2-4--2-|---2-4-2-|---2-4--2-|---2-4-2-|---2-4--2-]
[-4-------|-4--------|-4-------|-4--------|-4-------|-4--------]
[---------|----------|---------|----------|---------|----------]

     You just.....          Hold on......            It makes.....
[---------|--------|-b-brp----b-|----------|----------|--------]
[---------|--------|-4-4--2-4-4-|----------|-b-rbp----|--------]
[---2-4-2-|-----p--|-4-4--2-4-4-|-----p----|-4-4--2---|-----p--]
[---2-4-2-|-2-4--2-|------------|-2-4--2-4-|--------4-|-2-4--2-]
[-4-------|--------|------------|----------|----------|--------]
[---------|--------|------------|----------|----------|--------]
                                    
                                            D               E
       The way is.....    Try to.....       Don't even...   Just cry......
[---------|----------|-------------|----------------------|----------]
[---------|----------|-------------|--------7---7-7-7-7-7-|-9--9-9-9-]
[---2-4-2-|-------p--|---2-4-2-----|--------7---7-7-7-7-7-|-9--9-9-9-]
[---2-4-2-|---2-4--2-|---2-4-2-----|-4-2----7-----7-7-7-7-|-9--9-9-9-]
[-4-------|-4--------|-4-----------|--------5-----5-5-5-5-|-7--7-7-7-]
[---------|----------|----------2-2|----------------------|----------]


[-------|----------|-------2---------]
[-------|----------|-------2---------]
[-2-4-2-|-------p--|-2-4-2--------p--]
[-2-4-2-|---2-4--2-|-2-4-2----2-4--2-]
[-------|-4--------|-----------------]
[-------|----------|-----------------]


------------------------------------------------------------------
02:05
VERSE 2
********
It's fine as you leave
The one they keep at home
So you love someone
That you thought you owed

You know it's a crime
But what can you do?
That's the price you pay
With each turn of the screw

But don't pay no mind
Just cry from the street

      It's fine.......                           There's rumors.....
[---------|--------|---------|----------|---------|----------]
[---------|--------|---------|----------|---------|----------]
[---2-4-2-|-2---p--|---2-4-2-|-------p--|---2-4-2-|-------p--]
[---2-4-2-|---4--2-|---2-4-2-|---2-4--2-|---2-4-2-|---2-4--2-]
[-4-------|--------|-4-------|-4--------|-4-------|-4--------]
[---------|--------|---------|----------|---------|----------]

        That you....         You know.....          But what.....
[-br-br--|--------|---------2-|----------|---------2-|----------]
[-4--4---|--------|---------2-|----------|---------2-|----------]
[-4--4---|-2---p--|---2-4-2---|-------p--|---2-4-2---|-----p----]
[------4-|-2-4--2-|---2-4-2---|---2-4--2-|---2-4-2---|-2-4--2-4-]
[--------|--------|-4---------|-4--------|-4---------|----------]
[--------|--------|-----------|----------|-----------|----------]
 
                                           D               E  
        That's the.......  With each....   But don't...    Just cry......
[---------2-|--------|------------|----------------------|----------]
[---------2-|--------|------------|--------7---7-7-7-7-7-|-9--9-9-9-]
[---2-4-2---|-----p--|-2-4-2------|--------7---7-7-7-7-7-|-9--9-9-9-]
[---2-4-2---|-2-4--2-|-2-4-2------|-4-2----7-----7-7-7-7-|-9--9-9-9-]
[-4---------|--------|------------|--------5-----5-5-5-5-|-7--7-7-7-]
[-----------|--------|--------2-2-|----------------------|----------]


[-------|----------|-------2-----]
[-------|----------|-------2-----]
[-2-4-2-|-------p--|-2-4-2-------]
[-2-4-2-|---2-4--2-|-2-4-2-------]
[-------|-4--------|-------------]
[-------|----------|---------2-2-]


------------------------------------------------------------------
02:47
VERSE 3
********
You really love the night
Even though you're alone
It's such a cryin' shame
That things are so wrong

It's the sign of the scream
That it blinds your feet
I guess the chance is ours
You wish to stay and sleep

But don't even pray
Just cry from the street

      You really....                                    It's such...
[---------|-------|-----------2-|-----------|-----------2-|---b-brp----b-]
[---------|-------|-----------2-|-----------|-----------2-|---4-4--2-4-4-]
[---2-4-2-|-2-4-2-|---2---4-2---|--------p--|---2---4-2---|---4-4--2-4-4-]
[---2-4-2-|-2-4-2-|---2---4-2---|----2-4--2-|---2---4-2---|-2------------]
[-4-------|-------|-4---4-------|-4---------|-4---4-------|--------------]
[---------|-------|-------------|-----------|-------------|--------------]

         That things....         It's the sign...       That it blinds...
[---------|--------|---b-brp----b-|----------|---------2-|-2------2-]
[---------|--------|---4-4--2-4-4-|----------|---------2-|-2------2-]
[---2-4-2-|-----p--|---4-4--2-4-4-|-------p--|---2-4-2---|----------]
[---2-4-2-|-2-4--2-|-2------------|---2-4--2-|---2-4-2---|----4-4---]
[-4-------|--------|--------------|-4--------|-4---------|----------]
[---------|--------|--------------|----------|-----------|----------]

                                          D               E
      I guess...         You wish...      But don't...    Just cry......
[----------------|---------|-----|----------------------|----------]
[-------|--------|---------|-----|--------7---7-7-7-7-7-|-9--9-9-9-]
[-2-4-2-|-----p--|---2-4-2-|-2-4-|--------7---7-7-7-7-7-|-9--9-9-9-]
[-2-4-2-|-2-4--2-|---2-4-2-|-2-4-|-4-2----7-----7-7-7-7-|-9--9-9-9-]
[-------|--------|-4-------|-----|--------5-----5-5-5-5-|-7--7-7-7-]
[-------|--------|---------|-----|----------------------|----------]


------------------------------------------------------------------
03:22
SOLO
*****
[--b--------------|-14---p--------------|-----------------------------------]
[-17~~~~-14--b-14-|----17-14--b---------|-b-----b---brp--------brp----------]
[-----------16----|----------16-14----s-|-4~~~--4-4-4--2---2-4-4--2---2---2-]
[-----------------|----------------16-\-|----------------4----------4---4---]
[-----------------|---------------------|-----------------------------------]
[-----------------|---------------------|-----------------------------------]

03:34
[------------|--brp------------|---------------------------]
[--s---10----|-12--10----10--b-|---------------------------]
[-9\11----11-|--------11----11-|-11-9---s-------brp--------]
[------------|-----------------|------10\9-7-9--9--7---7---]
[------------|-----------------|---------------------9---7-]
[------------|-----------------|---------------------------]

03:42
[---------------------|-----------------]
[---------------------|-----------------]
[---------------------|-----------2---2-]
[--s-----------p------|--s--4--2----4---]
[-5\7-4-2-0-2-2-0-----|-5\7-------------]
[-----------------2-2-|-----------------]


[-----2--p-----2--p---------------|----------------]
[-b-2---5-2-b----5-2---rbp--------|----------------]
[-4---------4--------4-4--2-4-----|----------------]
[-----------------------------4-4-|-2-----p--------]
[---------------------------------|---4--2-0---0---]
[---------------------------------|----------2---2-]

03:56
[-----------|------------------|-------------brbr-|--------------------]
[-------bp--|---------b---rbp--|-------rbp--10----|-9------rbp-------s-]
[---7-9-9-7-|---9-11-11--11--9-|---7-9-9--7-------|---11--11--9----9-\-]
[-7---------|-9----------------|-7----------------|-------------11-----]
[-----------|------------------|------------------|--------------------]
[-----------|------------------|------------------|--------------------]

04:09
[-------------7---p--------------------|---------------------------------]
[-b-7-11--b-7---11-7-b-rp----p------br-|-b----p-----p--------------------]
[-9-------9----------9---7-9--7---7-9--|-9-9-9-7-6-7-6-----h-p----s------]
[-------------------------------9------|---------------7--6-7-6--2\4-2-2-]
[--------------------------------------|---------------------------------]
[--------------------------------------|---------------------------------]


------------------------------------------------------------------
this is a 2nd guitar comes in, not sure if this is right,
Has some type of effect on it. 
play this till it fades out. Solo continues below.

[--s-s----s-s----------------]
[-5\7/5--2\3/2---s-s---------]
[---------------2\4/2---s-s--]
[----------------------2\4/2-]
[----------------------------]
[----------------------------]


------------------------------------------------------------------
04:26       04:33
Solo Cont...
  UB UB UB   UB UB  04:39                              
[-12-12-12-|-19-19-|-------12---p----------------------]
[-15-15-15-|-22-22-|--b-12----15-12--brp-----p---------]
[----------|-------|-14-------------14--12-14-12-------]
[----------|-------|-----------------------------14-14-]
[----------|-------|-----------------------------------]
[----------|-------|-----------------------------------]

                               04:52
 04:45                            s   
[--------------b--rb----12----|-18\19-18-19-18-19-19-]
[-------brp---12-12---b----rb-|----------------------]
[-9-11-11--9---------11----11-|----------------------]
[---------------------|_____|-|----------------------]
[-----------------------------|----------------------]
[-----------------------------|----------------------]

                                      UB UB  UB UB  UB UB       s
[-----------------------------------|-12-12--14-14--16-16--19-19\-]
[-brp---p---------------------------|-15-15--17-17--19-19---------]
[-2--0-2-0--p-p---p-----------------|-----------------------------]
[----------4-2-0-2-0--h-p----h-p----|-----------------------------]
[--------------------0-2-0--0-2-0---|-----------------------------]
[---------------------------------5-|-----------------------------]



A Great Track By Gilmour. Enjoy.....
Tap to rate this tab
 
# A B C D E F G H I J K L M N O P Q R S T U V W X Y Z