Song name
# A B C D E F G H I J K L M N O P Q R S T U V W X Y Z

David Glen Eisley - Sweet Victory tab

----------------------------------------------------------------------------
			     Sweet Victory - David Glenn Eisley
----------------------------------------------------------------------------
Tabbed by:Jake
Email:short.ass.jake@hotmail.co.uk

this is an epic guitar solo! if you havent heard it then you should! i tried my best!

Tuning:Standard

  Build up

e|------------------------------------------------------------------|
B|------------------------------------------------------------------|
G|--12br-10-12br-10-10h12-------------------------------------------|
D|---------------------------10-10-10-10-10-10-10-10-10-10-10-10-10-|
A|---------------------------8--8--8--8--8--8--8--8--8--8--8--8--8--|
E|------------------------------------------------------------------|

  Epic bit - after playing first note, do not release bend until the second
  note with the litle r after it. this repeats a few times.
the end of this line is annoying. There are other ways of doing it, but i tapped it 
the t's)

e|-------------------------------------------------------------------------|
B|-------------------------------------------------------------------------|
G|--12b*-12r*-12b-12r-12b-12r-12b-12r-12b-12r-10-10h12-t12p7h10t12p10h7h10-|
D|-------------------------------------------------------------------------|
A|-------------------------------------------------------------------------|
E|-------------------------------------------------------------------------|

e|-----------10h13-15br-15br-15br-15br-13--13p11-------------------|
B|--10-11-13------------19br-19br-19br-----------11h12p11----------|
G|--------------------------------------------------------13s15-13-|
D|-----------------------------------------------------------------|
A|-----------------------------------------------------------------|
E|-----------------------------------------------------------------|

e|--17-18-20-22-20-18-17h18p17----------------------------------17br-16-13-|
B|-----------------------------20-18h20p18h20p18h20p18h20p18---------------|
G|-----------------------------------------------------------17------------|
D|-------------------------------------------------------------------------|
A|-------------------------------------------------------------------------|
E|-------------------------------------------------------------------------|

e|--13h16p13----13br-16-13br--13s15~-|
B|-----------16---------16br---------|  Enjoy and I hope I was of some use!
G|-----------------------------------|
D|-----------------------------------|
A|-----------------------------------|
E|-----------------------------------|

  t  tap
| /  slide up
| \  slide down
| h  hammer-on
| p  pull-off
| ~  vibrato
| *  harmonic
| x  Mute note
  b  Bend
  r  Return
============================================================================
Tap to rate this tab
# A B C D E F G H I J K L M N O P Q R S T U V W X Y Z