Song name
# A B C D E F G H I J K L M N O P Q R S T U V W X Y Z

David Gray - This Years Love tab

I've only been playing guitar for about two months so this is probably off, first thing 
tried to figure out, but it gets the job done. Standard tuning.

E-----------------------------------------------------|
B-----------------------------------------------------|
G-----------------------------------------------------|
D-------11-10---8---9--10--8----11-10---8--10--8------|
A---9---------------9----------------------10---------|
E-----------------------------------------------------|

E-----------------------------------------------------|
B-----------------------------------------------------|
G---------------------------------------6--7--6----4--|
D-------11-10---8---9--10--8----11-10---6-------------|
A---(9)-------------9---------------------------------|
E-----------------------------------------------------|

& repeat starting "This year's love had better last..."
Tap to rate this tab
 
# A B C D E F G H I J K L M N O P Q R S T U V W X Y Z