Song name
# A B C D E F G H I J K L M N O P Q R S T U V W X Y Z

David Gray - Draw The Line tab

-------------------------------------------------------------------------------
			     Draw the Line - David Gray
-------------------------------------------------------------------------------

Email:mclkeb@yahoo.com

Standard Tuning, Capo 6th (he tunes 1/2 step down with capo 7)
This is tabbed from watching a live performance
All tab in reference to capo (6th fret = 0)


 Verse
e|------5-------5-------5-------5-------5-------5-------5---------------------|
B|------0-------0-------0-------0-------0-------0-------0---------------------|
G|----0-------0-------0-------0-------0-------0-------0-----------------------|
D|--4-----4-4-----4-4-----4-4-----4-4-----4-4-----4-4------44444--------------|repeat from
A|--2-----2-2-----2-2-----2-2-----2-0-----0-0-----0-0------00000---beginning--|
E|--0-----0-0-----0-0-----0-3-----0-2-----2-2-----2-2------22323--------------|

Chorus
      strum    strum
e|--2--------0----------------2---------------------------------------------|
B|--3--------0----------------3---------------------------------------------|
G|--2--------0----------------2-----continues like this through chorus------|
D|--0--------2----------------0---------------------------------------------|
A|--0--------2--------0-0--0-0----------------------------------------------|
E|--2--------0--------0-3--0-2----------------------------------------------|


| /  slide up
| \  slide down
| h  hammer-on
| p  pull-off
| ~  vibrato
| +  harmonic
| x  Mute note
===============================================================================
Tap to rate this tab
# A B C D E F G H I J K L M N O P Q R S T U V W X Y Z