Song name
# A B C D E F G H I J K L M N O P Q R S T U V W X Y Z

David Gray - Draw The Line chords

Highlighted       Show chord diagrams
Capo 6

These some easy chords to use for this song.  Sounds alright.   Even better if 
someone else is playing the tab over the top.  

Verse/Chorus 

e|---------2--------2-----------------------|
B|---------3--------3-----------------------|
G|---------0--------0-----------------------|
D|---------2--------2-----------------------|
A|---------2--------X-----------------------|
E|---------0--------2------2--3--2--3--2----|   Repeat


Bridge ("I've been doubting yours baby, Ive been doubting mine" ...etc)  This I'm 
not 100% on. These are the chords I use, listen to the song to figure out what the 
progression is.    
                        E7                Em7*            D/F#
e|---------0--------2--------2------|
B|---------3--------3--------3------|
G|---------1--------0--------0------|
D|---------0--------2--------2------|
A|---------2--------2--------X------|
E|---------0--------0--------2------|



Something like this:

E7...........................................Em7*...................................D/F#
Ive been doubting yours baby, Ive been doubting mine
E7......................................Em7*...................................D/F#
Ive been outta circulation where the sun down shine
D/F#...................................................E7
Ive been doubting fame and wealth, charity, even love itself
Verse Progression 1 time
Draw The Line

Thats about it.  Works alright.  Not perfect, but by all means fix it up!
Tap to rate this tab
 
# A B C D E F G H I J K L M N O P Q R S T U V W X Y Z