Song name
# A B C D E F G H I J K L M N O P Q R S T U V W X Y Z

David Gray - From Here You Can Almost See The Sea tab

-----------------------------------------------------------------------------
From Here You Can Almost See The Sea  - David Gray
-----------------------------------------------------------------------------
Tabbed by:Jason Acosta
Tuning:Open E (E B E G# B e)

Listen closely to get the timing right. The notes on the high B string often match the 
of the vocals.

e|--------------------------------------------------------------------------|
B|-9/10-9--7--5----9/10--9--7--5--2--0--9/10--9--7--9----9/10--9--7--5--2--0|
G|--------------------------------------------------------------------------|
D|--------------------------------------------------------------------------|
A|=9/10-9--7--5----9/10--9--7--5--2--0--9/10--9--7--9----9/10--9--7--5--2--0|
E|--------------------------------------------------------------------------|
                                                                        ^
Come the weekend...
If you would hold still...
I dream of high clouds...
I saw a film once...(to end the song he holds the 2nd fret chord for an extra measure on 
word heart, arrow indicates)

e|-------------------5------------------------------------------------------|
B|---------------5---5--------9/10-9----9/10-9------------------------------|
G|-1------------------------------------------------------------------------|
D|-2------------------------------------------------------------------------|
A|-2-------------5---5--------9/10-9----9/10-9------------------------------|
E|(2)----------------5------------------------------------------------------|
                     ^
Just a Parasite in the line...
Little puppy dog in a box...
Fingers, knees and knuckles scraped...(hold the 5th fret chord for an extra measure as 
sings "from here you can almost see" twice, arrow indicates)

e|--------------------------------------------------------------------------|
B|-------5----9/10-9----9/10-9----------------------------------------------|
G|-6-----5------------------------------------------------------------------|
D|-7-----5------------------------------------------------------------------|
A|-7-----7----9/10-9----9/10-9----------------------------------------------|
E|(7)----5------------------------------------------------------------------|

Just Another Fool in a line

************************************

| /   slide up
| \   slide down
| h   hammer-on
| p   pull-off
| ~   vibrato
| +   harmonic
| x   Mute note
| b   Bend
| pb  Pre-bend
| br  Bend release
| pbr Pre-bend release
| brb Bend release bend

************************************
Tap to rate this tab
# A B C D E F G H I J K L M N O P Q R S T U V W X Y Z