Song name
# A B C D E F G H I J K L M N O P Q R S T U V W X Y Z

David Gray - When I Was In Your Heart tab

-------------------------------------------------------------------------------
			     When I was in your heart - David Gray
----------------------------------------------------------------------------

I hope you enjoy this song as much as I do!

Tabbed by: Josh Anderson
Email: andiesband@yahoo.com

Tuning: Standard tuning with a capo on the fourth fret.  Capo all strings except the 
e.  It should remain open.  All notes relative to capo.

Intro: Play 4x

e|----------------|--------0--|---------0--|-----------|
B|----------------|--------3--|---------3--|-----------|
G|-5--5--4--2--0--|--------0--|---------0--|-----------|
D|----------------|--------4--|---------4--|-----------|
A|----------------|-----2-----|------0-----|-----------|
E|----------------|--0--------|0--3--------|0--2-------|

Intro : Play this intro on the third measure.

e|-0--0--0--0--0--|
B|-5--5--0--0--0--|
G|-5--5--4--2--0--|
D|----------------|
A|----------------|
E|----------------|

Verse:  This is the first half to the verse of the song.  the ending of the verse where 
sings "when I was in your heart" is the same as the intro

e|----------------|-0--0--0--0--0--0--0--0-|
B|----------------|-3--3--3--3--3--3--3--3-|
G|-5--5--4--2--0--|-0--0--0--0--0--0--0--2-|
D|----------------|-2--2--2--2--2--2--2--0-|
A|----------------|-2--2--2--2--2--2--2--0-|
E|----------------|-0--0--0--0--0--0--0--2-|

Chorus:

    C                   G
e|--3----3----3----3-|--3----3-|
B|--1----1----1----1-|--3----3-|
G|--0----0----0----0-|--0----0-|
D|--2----2----2----2-|--0----0-|
A|--3----3----3----3-|--2----2-|
E|--0----0----0----0-|--3----3-|

Last Part of chorus

   C                   G                   G
e|--3----3----3----3-|--3----3-|--3----3-|--3----3|--3----3-|
B|--1----1----1----1-|--3----3-|--3----3-|--3----3|--3----3-|
G|--0----0----0----0-|--0----0-|--2----2-|--0----0|--2----2-|
D|--2----2----2----2-|--0----0-|--0----0-|--0----0|--0----0-|
A|--3----3----3----3-|--2----2-|--0----0-|--2----2|--0----0-|
E|--0----0----0----0-|--3----3-|--2----2-|--3----3|--2----2-|
Tap to rate this tab
 
# A B C D E F G H I J K L M N O P Q R S T U V W X Y Z