David Gray - Nemesis tab

-----------------------------------------------------------------------------
			     Nemesis - David Gray
-----------------------------------------------------------------------------
Tabbed by: Shaungee
Email:  ihatequarles@hotmail.com

Tuning:  Standard
         Capo on 2

All tabs relative to capo on 2.  You could play this part without a capo, just up the
numbers by two, but the chords in this song are played with a capo, so if you wanted to
play this to lead in to the rest of the song, just throw the capo on.  The chords were 
already posted on here, so this is just the intro.  The numbers in parentheses are alternate
ways to play the little runs that transition the melodies, they are better if your hands 
aren't big enough to make the stretches.  Hope you like it!



e|----------------------------------------------------(2/3)-----------------|
B|--5---5---5---5---5---7/8--------3---3---3---3---3---7/8------------------|
G|---5---5---5---5---5---------------4---4---4---4---4----------------------|
D|5---5---5---5---5----------------5--5---5---5---5-------------------------|
A|--------------------------------------------------------------------------|
E|--------------------------------------------------------------------------|

e|------------------------------------------------------(5\3--2h3)----------|
B|--5---5---5---5---5---7/8--------3---3---3---3---3---12\10--9h10----------|
G|---5---5---5---5---5---------------4---4---4---4---4----------------------|
D|5---5---5---5---5----------------5--5---5---5---5-------------------------|
A|--------------------------------------------------------------------------|
E|--------------------------------------------------------------------------|

e|----------------------------------------------------(2/3)-----------------|
B|--5---5---5---5---5---7/8--------3---3---3---3---3---7/8------------------|
G|---5---5---5---5---5---------------4---4---4---4---4----------------------|
D|5---5---5---5---5----------------5--5---5---5---5-------------------------|
A|--------------------------------------------------------------------------|
E|--------------------------------------------------------------------------|

e|--------------------------------------------------------------------------|
B|--5---5---5---5---5---7/8--------3----3---3----3--------------------------|
G|---5---5---5---5---5---------------4----4---4-----------------------------|
D|5---5---5---5---5----------------5---5----5----5--------------------------|
A|--------------------------------------------------------------------------|
E|--------------------------------------------------------------------------|

************************************

| /   slide up
| \   slide down
| h   hammer-on


************************************
Tap to rate this tab
 
# A B C D E F G H I J K L M N O P Q R S T U V W X Y Z