Song name
# A B C D E F G H I J K L M N O P Q R S T U V W X Y Z

David Grubbs - Dont Think tab

Help us improve GuitareTab! Take a short survey!
David Grubbs (http://www.dragcity.com/bands/grubbs.html)
Don't Think
off of Rickets and Scurvy

Tabbed by Alec LaLonde   (www.aleclalonde.com)

Dropped D tuning --- D A D G B e

Intro, Verses

e-||--------------------||-----------------||-------------------||---------------------------|
B-||-o----------------o-||-o-------------o-||-o---------------o-||-o-------------------------|
G-||---0-------0-(0)----||-------0-0-------||--------0-0--------||-------0-0-------0-0-------|
D-||---4-------4-(4)----||-------2-2-2-----||--------7-7-7------||-------5-5-5-----5-5-------|
A-||-o--5---5---------o-||-o---0------0--o-||-o---0-------0---o-||-o---0------0--0----0---0--|
D-||-----0--0-----------||---2-2-----------||---7-7-------------||---4-4-------2-2------0-0--|

Chorus

e-||------------------||-----------------||------|
B-||-o--------------o-||-o-------------o-||------|
G-||--------0-0-------||-------0-0-------||------|
D-||--------5-5-5-----||-------4-4-4-----||------|
A-||-o----0------3--o-||-o---5------5--o-||------|
D-||----3-3-----------||---0-0-----------||------|

Interlude

e-||--------------------||--------------------||---------------------||
B-||-o----3------3----o-||-o----3------3----o-||-o----5------5-----o-||
G-||-----0-0---0---00---||-----0-0---0---00---||-----0-0---0---00----||
D-||---4-----4----------||---5-----5----------||---7-----7-----------||
A-||-o----------------o-||-o----------------o-||-o-----------------o-||
D-||--------------------||--------------------||---------------------||

e-||--------------------||--------------------||
B-||-o----3------3----o-||-o----3------3----o-||
G-||-----0-0---0---0----||-----0-0---0---00---||
D-||---4-----4------2---||---4-----4----------||
A-||-o----------------o-||-o----------------o-||
D-||--------------------||--------------------||

Breakdown -- there are two guitars here but this sounds alright by itself

e-||-------0-0---0-0------0-0---0-0--------0-0---0-0---||
B-||-o-----3-3---3-3------5-5---5-5--------3-3---3-3-o-||
G-||---0-0-0-0-0-0-0--0-0-0-0-0-0-0------2-2-2-2-2-2---||
D-||---5-5-----5------7-7-----7---------0-----0--------||
A-||-o-----------------------------------------------o-||
D-||---------------------------------------------------||
Related for Dont Think tab