Song name
# A B C D E F G H I J K L M N O P Q R S T U V W X Y Z

David Guetta Feat Kelly Rowland - When Love Takes Over tab

-------------------------------------------------------------------------------
		 WHEN LOVE TAKES OVER - David Guetta feat. Kelly Rowland
-------------------------------------------------------------------------------
Tabbed by: heipi

Tuning: standard

 F#                       c#m 

e|------------------------|12-------12-------12----|
B|14-------14-------14----|---14-------14-------14-|
G|---15-------15-------15-|------13-------13-------|
D|------16-------16-------|------------------------|
A|------------------------|------------------------|
E|------------------------|------------------------|

 G#m                      F#

e|11-------11-------11----|14-------14-------14----|
B|---12-------12-------12-|---14-------14-------14-|
G|------13-------13-------|------15-------15-------|
D|------------------------|------------------------|
A|------------------------|------------------------|
E|------------------------|------------------------|

just repeat this over and over again.

Tap to rate this tab
# A B C D E F G H I J K L M N O P Q R S T U V W X Y Z