Song name
# A B C D E F G H I J K L M N O P Q R S T U V W X Y Z

David Guetta Feat Kelly Rowland - When Love Takes Over tab

e|0------0------0---------|3------3------3---------|
B|--2------2------2-------|--5------5------5-------|
G|----2------2------------|----4------4------------|
D|------------------------|------------------------|
A|------------------------|------------------------|
E|------------------------|------------------------|

e|2------2------2---------|5------5------5---------|
B|--3------3------3-------|--5------5------5-------|
G|----4------4------------|----6------6------------|
D|------------------------|------------------------|
A|------------------------|------------------------|
E|------------------------|------------------------|
Tap to rate this tab
# A B C D E F G H I J K L M N O P Q R S T U V W X Y Z