Song name
# A B C D E F G H I J K L M N O P Q R S T U V W X Y Z

David Guetta - Titanium tab

David Guetta - Titanium 


  1|-------------------------------------------------------------------------------------------|
h 2|------------8----------------------------------------------8----------------------8--------|
e 3|-------10---------10---------8-----10-----8----------10--------10------------10-------10---|
n 4|----8-----8----8-----8----8-----8------8----8-----8-----8----8-----8------8-----8---8----8-|
r 5|-6-----------------------------------------------------------------------------------------|
y 6|------------------------6----------------------8-----------------------4-------------------|


  1|---------------------------------------------------------------------4--3--1-1--3--1-------|
c 2|------------8----------------------------------------------8--------------------------4----|
a 3|-------10---------10---------8-----10-----8----------10--------10--------------------------|
i 4|----8-----8----8-----8----8-----8------8----8-----8-----8----8-----8-----------------------|
  5|-6-----------------------------------------------------------------------------------------|
  6|------------------------6----------------------8----------------------4--------------------|




This song is pretty much the same thing whole way through


First Tab :D
Tap to rate this tab
# A B C D E F G H I J K L M N O P Q R S T U V W X Y Z