Song name
# A B C D E F G H I J K L M N O P Q R S T U V W X Y Z

David Guetta - Titanium tab

David Guette feat. Sia
tabs by mbat
Intro

|------------------------------------------------------------------------------------------|
|------------------------------------------------------------------------------------------|
|------11-11-13-13-11-11(11-11)9-9-11-11-9-9-----11-11-13-13-11-11-------11-11-13-13-11-11-|
|------------------------------------------------------------------------------------------|
|------------------------------------------------------------------12-12-------------------|
|12-12-------------------11-11---------------9-9-------------------------------------------|

------------------------------------------------------------------------------------------|
------------------------------------------------------------------------------------------|
-------11-11-13-13-11-11(11-11)9-9-11-11-9-9-----11-11-13-13-11--14--14-13-13-11-11-13-13-|
------------------------------------------------------------------------------------------|
------------------------------------------------------------------------------------------|
-12-12-------------------11-11---------------9-9------------------------------------------|

please rate a comment :)
Tap to rate this tab
# A B C D E F G H I J K L M N O P Q R S T U V W X Y Z