Song name
# A B C D E F G H I J K L M N O P Q R S T U V W X Y Z

David Guetta - Titanium tab

easy to play, gotta be good at holding down the 8th fret with your ring finger to play 
smoothly, and it is pretty obvious that pretty much every note is muted :)

if you are musically inclined, every note is an eigth note :)

e|---------------------------|--------------------------|
B|---------------8-----------|--------------6-----------|
G|--------8------------8-----|--------8-----------8-----|
D|-----8-----8------8-----8--|-----8-----8-----8-----8--|
A|--6------------------------|--5-----------------------|
E|---------------------------|--------------------------|

e|---------------------------|--------------------------|
B|---------------8-----------|--------------8-----------|
G|--------8------------8-----|--------8-----------8-----|
D|-----8-----8------8-----8--|--5--8-----8-----8-----8--|
A|---------------------------|--------------------------|
E|--8------------------------|--------------------------|

e|---------------------------|--------------------------|
B|---------------8-----------|--------------6-----------|
G|--------8------------8-----|--------8-----------8-----|
D|-----8-----8------8-----8--|-----8-----8-----8-----8--|
A|--6------------------------|--5-----------------------|
E|---------------------------|--------------------------|

e|---------------------------|--------------------------|
B|---------------8--------9--|-----8-----6-----8--6-----|
G|--------8------------8-----|--8-----8--------------8--|
D|-----8-----8------8--------|--------------8-----------|
A|---------------------------|--------------------------|
E|--8------------------------|--------------------------|


this tab plays throughout the song, so you can play this pretty much for the whole 
thing, enjoy! :)

first tab, go easy please! hahaha ;P
Tap to rate this tab
 
# A B C D E F G H I J K L M N O P Q R S T U V W X Y Z