Song name
# A B C D E F G H I J K L M N O P Q R S T U V W X Y Z

David Guetta - She Wolf Falling To Pieces tab

no capo
standard tuning

VERSES 1&2, & INTRO
|Am  |Em  |G   |D  :|

CHORUS
  G                 Em                Bm                D
e|-----------------|-0-----0-----0---|-----------------|-----------------|
B|-3-0---3-0---3-0-|---0-----0-----0-|-3-0---3-0---3-0-|-3-----3-----3---|
G|-----0-----0-----|-----0-----0-----|-----------------|---0-----0-----0-|
D|-----------------|-----------------|-----4-----4-----|-----4-----4-----|
A|-----------------|-----------------|-2~--------------|-5~--------------|
E|-3~--------------|-0~--------------|-----------------|-----------------|

repeat until "FALLING TO PIECES"

"FALLING TO PIECES"
the same chords as intro/verse

SYNTH
e|-0-7-5-7-5-5-7-5-|-0-5-3-5-3-3-5-3-|---5-3-5-3-3-5-3-|---3-2-3-2-2-3-2-|
B|-----------------|-----------------|-3---------------|-3---------------|
G|-----------------|-----------------|-----------------|-----------------|
D|-----------------|-----------------|-----------------|-0~--------------|
A|-0~--------------|-----------------|-----------------|-----------------|
E|-----------------|-0~--------------|-3~--------------|-----------------|
Tap to rate this tab
 
# A B C D E F G H I J K L M N O P Q R S T U V W X Y Z